Log in

One click and you are in

Login with Facebook Login with Google

Why sign up and log in

Guitar Tabs Explorer
Mudvayne guitar tabs for Internal primates forever

Guitar tabs with lyrics

Album: L.D. 50
Transcribed By: "Slipvayne"(psycho_aerials@yahoo.com)
(chik ng phase-6 para sa'yo to)

This is my Original tablature hope you enjoy it guyz!!

Tuning: Drop D, Down 1 1/2 Steps (B,F#,B,E,G#,C#)

INTRO:
|--------------------------------------------------|
|--------------------------------------------------|
|--------------------------------------------------|
|--------------------------------------------------|
|--------------------------------------------------|
|-4-0-1--1-0-1--0-0-3-2-3--4-0-1--1-0-1--0-0-3-2-3-|

CHORUS:
|--------------------------------------------------|
|--------------------------------------------------|
|--------------------------------------------------|
|--------------------------------------------------|
|-4-0-1--1-0-1--0-0-3-2-3--4-0-1--1-0-1--0-0-3-2-3-|
|-4-0-1--1-0-1--0-0-3-2-3--4-0-1--1-0-1--0-0-3-2-3-|

FILL:
|--------------------|
|--------------------|
|--------------------|
|--------------------|
|-4-0-1--0-1--0-1--0-|
|-4-0-1--0-1--0-1--0-|

VERSE:
|------------------|
|------------------|
|---7-----7------7-|
|-6---XX6---XXXX-6-|
|------------------|
|------------------|

BRIDGE: (palm mute)
|---------------------------------|
|---------------------------------|
|-7-7-7-------------3-3-3-5-5-6-6-|
|-------3-3-3-5-5-5---------------|
|---------------------------------|
|---------------------------------|

BRIDGE 2:
|----------------------------------------|
|----------------------------------------|
|----------------------------------------|
|----------------------------------------|
|-12-12-12-3-3-3-5-5-5-8-8-8-10-10-11-11-|
|-12-12-12-3-3-3-5-5-5-8-8-8-10-10-11-11-|

FILL 2:
|---------------------------------------|
|---------------------------------------|
|---------------------------------------|
|---------------------------------------|
|-12-12-12-10-10-10-8-8-8-7-7-7-7-7-7-7-|
|-12-12-12-10-10-10-8-8-8-7-7-7-7-7-7-7-|

INTERLUDE:
|--------------------------|    |--------------------------|
|--------------------------|play|--------------------------|
|--------------------------| 4X |--------------------------|
|--------------------------|then|--------------------------|
|-5-3-0-3-5-0-3--6-3-0-3/5-|    |-5-3-0-3-5-0-3--6-3-0-8-5-|
|-5-3-0-3-5-0-3--6-3-0-3/5-|    |-5-3-0-3-5-0-3--6-3-0-8-5-|

INTERLUDE 2:
|----------------------------------------------------------|
|----------------------------------------------------------|
|-12-12-12-12-12-12-12-12-12-12-12-12-13-13-13-13----------|
|--X--X--X--X--X--X--X--X--X--X--X--X--X--X--X--X----------|
|-10-10-10-10-10-10-10-10-10-10-10-10-11-11-11-11----------|
|----------------------------------------------------------|

INTERLUDE 3:
|--------------------------|
|--------------------------|
|--------------------------|
|--------------------------|
|-5-3-0-3-5-0-3--6-3-0-3/5-|
|-5-3-0-3-5-0-3--6-3-0-3/5-|

FILL 3: (no pause between spaces)
|-------------------------------------------|
|-------------------------------------------|
|-------------------------------------------|
|-------------------------------------------|
|-63035-63035-63035-63035-63035-63035-63030-|
|-63035-63035-63035-63035-63035-63035-63030-|

FILL 4:
|---------------|
|---------------|
|---------------|
|---------------|
|-0h2-0h2-3p0-2-|
|-0h2-0h2-3p0-2-|

CHORUS:
|---------------------------|
|---------------------------|
|---------------------------|
|---------------------------|
|-4p0-1p0-1p0-1p0-0-0-3-2-3-|
|-4p0-1p0-1p0-1p0-0-0-3-2-3-|

OUTRO:
|-----------------------------|
|-----------------------------|
|-----------------------------|
|-----------------------------|
|-4-3-0-7-6--X--4-3-0-7-6-0-3-|
|-4-3-0-7-6--X--4-3-0-7-6-0-3-|

OUTRO 2:
|-------------------------------------|
|-------------------------------------|
|------------------------------101010-|
|-------------------------------X-X-X-|
|-4-3-0-7-6-0-3--4-3-0-7-6-0-0--8-8-8-|
|-4-3-0-7-6-0-3--4-3-0-7-6-0-0--------|

OUTRO 3:
|--------------|
|--------------|
|--------------|
|--------------|
|-4-0-1--1-0-1-|
|-4-0-1--1-0-1-|

(TROPS FOREVER!!)

Almost there ...

Sign in to get your own page with links to favourite songs and more. You are just one click away...

Login with Facebook Login with Google