Log in

One click and you are in

Login with Facebook Login with Google

Why sign up and log in

Guitar Tabs Explorer
Mudvayne guitar tabs for Dull boy

Guitar tabs

------------------------------------------------------------------------------
			     Dull Boy - Mudvayne
-------------------------------------------------------------------------------
Tabbed by:

Tuning:wierd ass(DGdgBE)

e|---------------------------------------------------------------------------|
B|---------------------------------------------------------------------------|
G|---------------------------------------------------------------------------|
D|---------------------------------------------------------------------------|
G|---------------------------------------------------------------------------|(Intro?)
D|00--0--0--000--0-0---000---0--0---000-000-000-------0--0--000--0-0---000---|0:13-0:40

(Palm mute if ya know whats good for yer)....................................
e|---------------------------------------------------------------------------|
B|---------------------------------------------------------------------------|
G|---------------------------------------------------------------------------|
D|---------------------------------------------------------------------------|
G|---------------------------------------------------------------------------|
D|----0--0---000-000-000--(so on so forth ?there is almost a pattern?)-------|
........................
e|---------------------------------------------------------------------------|
B|---------------------------------------------------------------------------|
G|---------------------------------------------------------------------------|
D|---4/3-----------------12-----6/5---------------------666--0--------------|
G|---4/3---4/3----7/5----12-----6/5-----56--0----------666--0--------------|(the part he goes blah..)
D|---------4/3----7/5--------------------56--0----/777----------------------|0:40-0:54
                                                    ...  ... ...              1:54-2:00
e|---------------------------------------------------------------------------|
B|---------------------------------------------------------------------------|
G|---------------------------------------------------------------------------|
D|--3333333-----3333333---2222222---2222222----------------------------------|
G|--3333333-----3333333---2222222---2222222----------------------------------|
D|--0000000-----3333333---0000000---2222222----------------------------------|(Chorus)0:54-1:20
   ^seven times^--> --> --> ^------>^                                                 2:00-2:28
                                                                                      3:08-3:35
e|---------------------------------------------------------------------------|
B|---------------------------------------------------------------------------|
G|---------------------------------------------------------------------------|
D|--3333333----3333333-----7777777-------------------------------------------|
G|--3333333----3333333-----7777777-------------------------------------------|
D|--0000000----3333333-----7777777-------------------------------------------|

e|---------------------------------------------------------------------------|(Interlude)
B|---------------------------------------------------------------------------|2:28-3:08
G|---------------------------------------------------------------------------|3:45-END BABY
D|-----3-----2-------3------2---2-3-2-0--------------------------------------|
G|---0-----0-------0------0---0----------------------------------------------|
D|-0-----0-------0------0----------------------------------------------------|

E|---------------------------------------------------------------------------|
G|-------3-----2-------3----2----23------------------------------------------|
B|---0-----0-------0------0---0----------------------------------------------|
D|-0-----0-------0------0----------------------------------------------------|
G|---------------------------------------------------------------------------|
D|---------------------------------------------------------------------------|
  (I rated it hard cuz it is my first tab.enjoi mudvayne forever)





| /  slide up
|   slide down
| h  hammer-on
| p  pull-off
| ~  vibrato
| +  harmonic
| .  Mute note

Almost there ...

Sign in to get your own page with links to favourite songs and more. You are just one click away...

Login with Facebook Login with Google