Log in

One click and you are in

Login with Facebook Login with Google

Why sign up and log in

Guitar Tabs Explorer
Mudvayne bass tabs for Dull boy

Bass tabs with lyrics

This is dull boy, but a 4 string version, because i know that everyone doesnt have a 5
string bass, if you can, Please rate this tab, i want to see how i'm doing with my tabs.
I hope you benefit from this tab, and good luck playin this song.
Key:
P = pop
S = slap
blank = normal strum
\ /= slide down/up
? = do what ever feels right, because i just cant quite tell
=== = hold

Tuning: (High to low) D
(after 13 second vocal intro)
G|--------------------------------------10--9------9-------------------|
D|12---------------12--------------------------12-----12--10--12-------|
A|---------------------------------------------------------------------|
D|---12--12-12-12------12--12-12-12-12---------------------------------|
  P S  S S S  P S  S S S S
G|------------------------------------------------------------------|
D|12----------------12----------------10--8------8------------------|
A|-------------------------------------------12-----12--10--12------|
D|----12--12-12-12------12-12--12-12--------------------------------|
  P  S  S S S  P  S S  S S
G|---------------------------------------10--9------9---------------|
D|12----------------12--------------------------12-----12--10--12---|
A|------------------------------------------------------------------|
D|----12--12-12-12------12--12-12-12-12-----------------------------|
  P  S  S S S  P  S  S S S S
G|------------------------------------------------------------------|
D|12----------------12----------------------------------------------|
A|------------------------------------3--1--0--1--0-----0-----------|
D|----12--12-12-12------12-12--12-12-----------------5--------------|
  P  S  S S S  P  S S  S S
(for these pops below, pop really agressively, like ryan does)
G|------------------------------------------------------------------|
D|0----------------0------------------------------------(next line)-|
A|----------------------------------3--2--0--2--0-----0-------------|
D|---0--0-0-0-0-0-----0--0-0-0-0-0-----------------5----------------|
 P! S S S S S S P! S S S S S S
 it says "next line" so you dont think theres a rest in between phrases
G|------------------------------------------------------------------|
D|0---------------0-----------------------------------(next line)---|
A|--------------------------------1--0-----0------------------------|
D|---0--0-0000-0-----0--0-0--0-0--------5-----5--3--5---------------|
 P! S S SSSS S P!! S S S S S
G|-------------------------------------------------------(next line)|
D|0----------------0----------------2--0-----0--2--3--2--0----------|
A|----------------------------------------3-------------------------|
D|---0--0-0-0-0-0-----0--0-0-0-0-0----------------------------------|
 P! S S S S S S P! S S S S S S
G|-------------------------------------------------------(next line)|
D|0---------------0-------------3--2--0-----0-----------------------|
A|---------------------------------------3-----1--0-----0-----------|
D|---0--0-0000-0-----0-0-0-0-0----------------------5---------------|
 P S S SSSS S P! S S S S S
  (do the phrase in between the two §s twice, and two ╦s four times)
G|§-----------------------------------------------------------------------|
D|------------------------------------------------------------------------|
A|1--0--------------------1--0---------------------3--0-------------------|
D|------3--2--5--2--3--2--------3--2--1--2--3--4--------3--2--5--2--3--2--|
G|---------------------------§|╦--------------------------------------------|
D|----------------------------|---------------------------------------------------|
A|1-1-1---------0-0-0---------|---------------------------------------------------|
D|-------4-4-4---------3-3-3--|0--0--0--0--0--0--0--0--5-3--3--3--3--2--2---------|
                (after 1st,2nd, and 4th time)
G|-----------------------------╦|--------------------------|
D|------------------------------|--------------------------------|
A|1--1--0--0--0--0--0--0--0--0--|--------------------------------|
D(4th time only)--------(10)(10)|3--3--3--3--3--3--3--3----------|
  (after 3rd time)
G|------------------------|--------------------------------6--6-/9--9|
D|------------------------|12----------------12----------------------|
A|------------------------|------------------------------------------|
D|3--3--3--3--5--5--2--3--|----12--12-12-12------12----12------------|
              P  S  S S S  P  S
G|7--7--7--7----------------------------------|
D|----------------------------7----6-----6----|
A|--------------------------------------------|(after this, it gets easier)
D|--------------7--9----3/--------7--666---6--|
            ?   P  SP SSS P S
G|--------------------------------10--9------9------------|
D|12----------------12-------------------12-----12--10--12|
A|--------------------------------------------------------|
D|----12--12-12-12------12----12--------------------------|
  P  S  S S S  P  S   S
G|--------------------------------------------------------|
D|12----------------12------------10--8------8------------|
A|---------------------------------------12-----12--10--12|
D|----12--12-12-12------12=======-------------------------|
  P  S  S S S  P  S
G|---------------------------------10--9------9------------|
D|12----------------12--------------------12-----12--10--12|
A|---------------------------------------------------------|
D|----12--12-12-12------12-12====--------------------------|
  P  S  S S S  P  S S
G|---------------------------------------------------------|
D|12-------------------------------------------------------|
A|---------------------------------1--0-----0--1--3--1--0--|
D|----12-121212-12--12--12=======--------5-----------------|
  P  S S S S S  P  S
G|---------------------------------------------(next line)|
D|0------------0----------2--0------0--2--3--2--0---------|
A|------------------------------5-------------------------|
D|---0--0-0-0-------0-0=----------------------------------|
 P S S S S P  S S
G|---------------------------------------------(next line)|
D|0-----------0-------------------------------------------|
A|------------------------1--0-----0--1--3--1--0----------|
D|---0-0-0-0-----0-0====--------5-------------------------|
 P S S S S P S S
G|---------------------------------------------(next line)|
D|0-----------0-----------2--0-----0--2--3--2--0----------|
A|------------------------------3-------------------------|
D|---0-0-0-0-----0-0====----------------------------------|
 P S S S S S S S
G|--------------------------------------------------------|
D|0-----------0-----------3--2--0-----0-------------------|
A|---------------------------------3-----1--0-----0-------|
D|---0-0-0-0-----0-0====-----------------------5----------|
 P S S S S P S S
G|----------------------------------------------------------------------|
D|----------------------------------------------------------------------|
A|1--0--------------------1--0--------------------3--0------------------|
D|------3--2--5--2--3--2--------3--2--1--2--3--4--------3--2--5--2--3--2|
             Repeat bracketed region 4x
G|-----------------------[----------------------------------------------|
D|-----------------------[----------------------------------------------|
A|1-1-1-------0-0-0------[----------------------------------------------|
D|------4-4-4-------3-3-3[-0--0--0--0--0--0--0--0--5-3--3--3--3--2--2---|
              (after 1st,2nd,&4th repeat)
G|----------------------------]-----------------------|
D|----------------------------]-----------------------|
A|1--1--0--0--0--0--0--0--0--0]-----------------------|
D|----------------------------]-3--3--3--3--3--3--3--3|
 (after 3rd repeat)
G|----------------------|--------------------------------------------------|
D|----------------------|--------------------------------------------------|
A|----------------------|--------------------------------------------------|
D|3--3--3--3--5--5--2--3|-0=0=0=========================================...|
Do the next 2 lines twice, then move on
G|-------------------------------------------------------------------------|
D|-------12--10--12====---------12--10--12--10/--14--15--14--12=======-----|
A|-------------------------------------------------------------------------|
D|12-14------------------12-14---------------------------------------------|

G|------------------------------------------------------}
D|-------12--10--12====---------------------------------}
A|------------------------------12--10--12==------------}
D|12-14------------------12-14----------------14--12--14}
 repeat next 2 lines
G|-----------------------------------------------------|
D|-----------------------------------------------------|
A|----5--3--5====-------5--3--5--3/-7--8--7--5======---|
D|0-2--------------0-2---------------------------------|

G|-----------------------------------------------------|
D|(0-0-0=======, move down)<- play 2nd time only-------|
A|----5--3--5====--------------------------------------|
D|0-2--------------0-2-7-5-7=-2-0-2==------------------|

G|---------------------------------------------------------------------|
D|---------------------------------------------------------------------|
A|------------------------------------------1-1--0--0--0--0--0--0--0--0|
D|0--0--0--0--0--0--0--0--5-3--3--3--3--2-2----------------------------|

G|---------------------------------------------------------------------|
D|---------------------------------------------------------------------|
A|---------------------------------------------------------------------|
D|3--3--3--3--3--3--3--3--0--0--0--0--0--0--0--0--5-3--3--3--3--2-2----|

G|---------------------------------------------------------------------------|
D|---------------------------------------------------------------------------|
A|1-1-0--0--0--0--0--0--0--0-------------------------------------------------|
D|----------------------------3--3--3--3--3--3--3--3--0--0--0--0--0--0--0--0-|

G|---------------------------------------------------------------------|
D|---------------------------------------------------------------------|
A|------------------1-1--0--0--0--0--0--0--0--0------------------------|
D|5-3--3--3--3--2-2------------------------------3--3--3--3--5--5--2--3|

G|---------------------------------------------------------------------|
D|---------------------------------------------------------------------|
A|------------------------------------------1-1--0--0--0--0--0--0--3--3|
D|0--0--0--0--0--0--0--0--5-3--3--3--3--2-2----------------------------|

G|----------------------------------------------------------------------|
D|-----------------------------------------------------0================|
A|----------------------------------------------------------------------|
D|2--2--2--2--2--2--2--2--0---0---0=============-0--2-------------------|

G|---------------------------------------------------------------------|
D|------------------------------0===============-----------------------|
A|----------------------------------------------------5--3--5==========|
D|0--2--0================-0--2------------------0--2-------------------|

G|---------------------------------------------------------------------|
D|---------------------------------------------------------------------|
A|------5--3--5===========-5------------5--3--5===========-------3=====|
D|0--2-----------------(soft pop)-0--2---------------------0--2--------|

↓ Add and view comments below ↓

What do you think about this song and these tabs?

Add your comments, questions, rant or a thumbs up below.

Almost there ...

Sign in to get your own page with links to favourite songs and more. You are just one click away...

Login with Facebook Login with Google