Log in

One click and you are in

Login with Facebook Login with Google

Why sign up and log in

Guitar Tabs Explorer
Mudvayne bass tabs for Do what you do

Bass tabs

Intro/Verse
F|-----222-000--------------222-000--------------222-000-------------------------|
C|-333---------333-0000-333---------333-0000-333---------333-0000--------------0-|
G|-------------------------------------------------------------------3---3---3---|x3
C|-----------------------------------------------------------------3---3---3-----|
Chorus
F|-------------------------------------------------------------------------------------|
C|-------------------------------------------------------------------------------------|
G|---------5-3-0-5-3-0---------3-5-3-3-3-2--------------5-3-0-5-3-0--------------------|x2
C|-000-0-0-------------333-3-3-------------5---000-0-0--------------333-3-3--8888-7777-|

F|----------|
C|----------|
G|-----5----|
C|-3-0------|
verse
F|------------------------------------------------------------------------|
C|--------77-----------------77-----------------77----------------------0-|
G|-----55----88888888-----55----88888888-----55----88888888---3---3---3---|
C|-333----------------333----------------333----------------3---3---3-----|

F|-----222-000--------------222-000--------------222-000-------------------------|
C|-333---------333-0000-333---------333-0000-333---------333-0000--------------0-|
G|-------------------------------------------------------------------3---3---3---|
C|-----------------------------------------------------------------3---3---3-----|
Chorus
F|-------------------------------------------------------------------------------------|
C|-------------------------------------------------------------------------------------|
G|---------5-3-0-5-3-0---------3-5-3-3-3-2--------------5-3-0-5-3-0--------------------|x2
C|-000-0-0-------------333-3-3-------------5---000-0-0--------------333-3-3--8888-7777-|
Bridge
F|--------------------------------------|
C|--------------------------------------|
G|--------------------------------------|x2
C|-88888888-77777777-55555555-3000-3000-|

F|--------------------------------------|
C|--------------------------------------|
G|----------------------------3333-2222-|
C|-88888888-77777777-55555555-----------|

F|--------------------------------------|
C|--------------------------------------|
G|----------------------------------3-5-|
C|-88888888-77777777-55555555-33-00-----|
Solo
F|-----222-000--------------222-000--------------222-000-------------------------|
C|-333---------333-0000-333---------333-0000-333---------333-0000--------------0-|
G|-------------------------------------------------------------------3---3---3---|x2
C|-----------------------------------------------------------------3---3---3-----|
Chorus
F|------------------------------------------------------------------------------------|
C|------------------------------------------------------------------------------------|
G|-----------------------------3-5-3-3-2----------------------------------------------|
C|-000-----------------333---------------5----000-----------------33333333--8888-7777-|

F|-------------------------------------------------------------------------------------|
C|-------------------------------------------------------------------------------------|
G|---------5-3-0-5-3-0---------3-5-3-3-3-2--------------5-3-0-5-3-0--------------------|
C|-000-0-0-------------333-3-3-------------5---000-0-0--------------333-3-3--8888-7777-|
Outro
F|-------------------------------------------|
C|-------------------------------------------|
G|-------------------------------------------|
C|-0000-3-000-5323/8757-3333-5-333-5323/8757-|

F|------------------------------------------|
C|------------------------------------------|
G|------------------------------------------|
C|-0000-3-000-5323/8757-33333333--8888-7777-|

F|-------------------------------------------|
C|-------------------------------------------|
G|-------------------------------------------|
C|-0000-3-000-5323/8757-3333-5-333-5323/8757-|

F|-------------------------------------------|
C|-------------------------------------------|
G|---------------------------------------3-5-|
C|-0000-3-000-5323/8757-33333333--8888-7-----|

F|-----------|
C|-----------|
G|------5----|
C|--3-0------|

Almost there ...

Sign in to get your own page with links to favourite songs and more. You are just one click away...

Login with Facebook Login with Google