Log in

One click and you are in

Login with Facebook Login with Google

Why sign up and log in

Guitar Tabs Explorer
Mudvayne tabs for Death blooms

Guitar tabs

Song : Death Blooms
Group : MuDvAyNe
Album : L.D.50
Tabbed By : RyKnow (stoned_bassist@hotmail.com)

This song is in standard MuDvAyNe tuning (A chord diagramBB A chord diagramF#F# A chord diagramBB A chord diagramE MajorE A chord diagramG#G# A chord diagramC#C#).

A chord diagramC#C#|------------------------------------------------
A chord diagramG#G#|------------------------------------------------
A chord diagramE MajorE |------------------------------------------------
A chord diagramBB |-32232232----------------18-------18-----18-----
A chord diagramF#F#|-32232232-------------------18------18-----18---
A chord diagramBB|-32232232---------------------18------18---------
MAIN RIFF:
|---------------------------------|
|---------------------------------|
|---------------------------------|
|-0-7-8-0-7-8-0-7-8-0-5-0-3-5-3-0-|
|-0-7-8-0-7-8-0-7-8-0-5-0-3-5-3-0-|
|-0-7-8-0-7-8-0-7-8-0-5-0-3-5-3-0-|

FILL:
|-----------------|
|-----------------|
|-----------------|
|-3-2-2-3-5-0-2-2-|
|-3-2-2-3-5-0-2-2-|
|-3-2-2-3-5-0-2-2-|


VERSE:
|-------------|
|-------------|
|-------------|
|-------------|
|-3-----3-----|
|---2-2---2-2-|

BRIDGE:
|---------------------------------|
|---------------------------------|
|---------------------------------|
|-3-2-2-3-2-2-3-2-2-3-2-2-3-2-0-0-|
|-3-2-2-3-2-2-3-2-2-3-2-2-3-2-0-0-|
|-3-2-2-3-2-2-3-2-2-3-2-2-3-2-0-0-|


CHORUS:
|------------------------------------------|
|------------------------------------------|
|-14--12-----------------------------------|
|-12--10---0-7-8-0-7-8-0-7-8-0-5-0-3-5-3-0-|
|-12--10---0-7-8-0-7-8-0-7-8-0-5-0-3-5-3-0-|
|-12--10---0-7-8-0-7-8-0-7-8-0-5-0-3-5-3-0-|

|--------------------------------------------|
|--------------------------------------------|
|-14--12--10---------------------------------|
|-12--10---8-0-7-8-0-7-8-0-7-8-0-5-0-3-5-3-0-|
|-12--10---8-0-7-8-0-7-8-0-7-8-0-5-0-3-5-3-0-|
|-12--10---8-0-7-8-0-7-8-0-7-8-0-5-0-3-5-3-0-|

FILL 2:
|---------------|
|---------------|
|-14--12--10----|
|-12--10---8--0-|
|-12--10---8--0-|
|-12--10---8--0-|

INTERLUDE: (palm mute)
|----------------------------|
|----------------------------|
|----------------------------|
|----------------------------|
|-8-0-2-3-2-0-8-0-2-3-2-0--0-|
|-8-0-2-3-2-0-8-0-2-3-2-0--0-|

INTERLUDE 2:
|------------------------------------------|
|------------------------------------------|
|------------------------------------------|
|------------------------------------------|
|-3--2-0-2-0-2-3--2-0-2-0-3--2-0-2-0-0-3-3-|
|-3--2-0-2-0-2-3--2-0-2-0-3--2-0-2-0-0-3-3-|

INTERLUDE 3:
|-------------------------------|
|-------------------------------|
|-14-12-11----------------------|
|-12-10--9----------------------|
|-12-10--9--2p0-0-3p0-0-2p0-0-0-|
|-12-10--9--2p0-0-3p0-0-2p0-0-0-|

INTERLUDE 4:
|------------------------------------------|
|------------------------------------------|
|------------------------------------------|
|------------------------------------------|
|-2p0-0-3p0-0-2p0-0-0--2p0-0-3p0-0-2p0-0-0-|
|-2p0-0-3p0-0-2p0-0-0--2p0-0-3p0-0-2p0-0-0-|

INTERLUDE 5:
|-----------------------------------------------------|
|-----------------------------------------------------|
|-----------------------------------------------------|
|-----------------------------------------------------|
|-2p0-0-3p0-0-2p0-0-0-XX-10-2p0-0-3p0-0-2p0-0-0-XX-10-|
|-2p0-0-3p0-0-2p0-0-0-XX-10-2p0-0-3p0-0-2p0-0-0-XX-10-|


OUTRO: (* -press hard on tenth fret)
|--------------------------------------------------------------|
|--------------------------------------------------------------|
|--------------------------------------------------------------|
|--------------------------------------------------------------|
|-00-0-0-0-0-32-0-0-*10*-32235020-0-0-3235-00-0-0*10*-32235022-|
|-00-0-0-0-0-32-0-0-*10*-32235020-0-0-3235-00-0-0*10*-32235022-|
PM           ..                                  .

|-----------------------------------------------------|
|-----------------------------------------------------|
|-----------------------------------------------------|
|-----------------------------------------------------|
|-00-0-0-0-0-32-0-0-*10*-32235020-0-0-3235-00-0-0*10*-|
|-00-0-0-0-0-32-0-0-*10*-32235020-0-0-3235-00-0-0*10*-|
PM           ..                                 .


E-MAIL ME WITH ANY COMMENTS OR CORRECTIONS (stoned_bassist@hotmail.com)
ⓘ Guitar tab for 'Death Blooms' by Mudvayne, a metal band formed in 1996 from Peoria, Illinois, USA. Mudvayne is known for their angry rock/pop music.

Almost there ...

Sign in to get your own page with links to favourite songs and more. You are just one click away...

Login with Facebook Login with Google