Log in

One click and you are in

Login with Facebook Login with Google

Why sign up and log in

Guitar Tabs Explorer
Mudvayne bass tabs for Death blooms

Bass tabs

Intro:

G|----------------7h-------7h-------7h----|
D|-------------------7h-------7h-------7h-|
A|----------------------7h-------7h-------| 3x
E|----------------------------------------|
B|3-2-2-3-2-2-2---------------------------|

G|----------------7h-------7h-----------|
D|-------------------7h-------7h--------|
A|----------------------7h--------------|
E|--------------------------------------|
B|3-2-2-3-2-2-2-------------------0-3-5-|
Main Riff:

G|--------------------------------|
D|--------------------------------|
A|--------------------------------| 4x
E|--------------------------------|
B|0-7-8-0-7-8-0-7-8-0-5-0-3-5-2-0-|


Verse:

G|---------------------------------------------------------------|
D|---------------------------------------------------------------|
A|---------------------------------------------------------------|
E|------------------------------------5--------------------------|
B|-3-2-0-2-5-0-2-3--------------0-2-2---2-2-3-2-0-2--------------|

G|---------------------------------------------------------------|
D|---------------------------------------------------------------|
A|---------------------------------------------------------------|
E|---------------------------------------------------------------|
B|-0-2-2-2-3-2-0-2--------------0-2-2-2-2-2-3-2-0-2--------------|

G|----------------------------------|
D|----------------------------------|
A|----------------------------------|
E|----------------------------------|
B|-0-2-2-2-3-2-0-2--3-2-0-2-5-0-2-3-|

G|--------------------------------|
D|--------------------------------|
A|--------------------------------|4x
E|--------------------------------|
B|3-2-2-3-2-2-3-2-2-3-2-2-3-2-0-2-|

G|---------------------------------------------------------------|
D|---------------------------------------------------------------|
A|---------------------------------------------------------------|
E|---------------------------------------------------------------|
B|-3-2-0-2-5-0-2-3--------------0-2-2-2-2-2-3-2-0-2--------------|

G|---------------------------------------------------------------|
D|---------------------------------------------------------------|
A|---------------------------------------------------------------|
E|---------------------------------------------------------------|
B|-0-2-2-2-3-2-0-2--------------0-2-2-2-2-2-3-2-0-2--------------|

G|----------------------------------|
D|----------------------------------|
A|----------------------------------|
E|----------------------------------|
B|-0-2-2-2-3-2-0-2--3-2-0-2-5-0-2-3-|

G|--------------------------------|
D|--------------------------------|
A|--------------------------------|4x
E|--------------------------------|
B|3-2-2-3-2-2-3-2-2-3-2-2-3-2-0-2-|

Chorus:

G|-------------------------------------4-----4-----2-----2-----|
D|-----------------------------------4---4-------2---2-------5-|
A|---------------------------------2-------2---0-------0-------|
E|---------------------------------------------------------3---|
B|-0-7-8-0-7-8-0-7-8-0-5-0-3-5-2-0-----------------------------|

G|-------------------------------------4-----4-----6-----6-----7-|
D|-----------------------------------4---4-------6---6-------7---|
A|---------------------------------2-------2---4-------4---5-----|
E|---------------------------------------------------------------|
B|-0-7-8-0-7-8-0-7-8-0-5-0-3-5-2-0-------------------------------|

G|-------------------------------------4-----4-----2-----2-----|
D|-----------------------------------4---4-------2---2-------5-|
A|---------------------------------2-------2---0-------0-------|
E|---------------------------------------------------------3---|
B|-0-7-8-0-7-8-0-7-8-0-5-0-3-5-2-0-----------------------------|

G|-------------------------------------4-----4-----6-----6-----7-----------|
D|-----------------------------------4---4-------6---6-------7-------------|
A|---------------------------------2-------2---4-------4---5---------------|
E|-------------------------------------------------------------------------|
B|-0-7-8-0-7-8-0-7-8-0-5-0-3-5-2-0-------------------------------0~--------|


Bridge:

G|-------4-x-----------4~-4/-|
D|---------------------------|
A|-2/3-X------2~--X--X-------|6x
E|---------------------------|
B|---------------------------|

G|---------------------------------------7~----7~--7\-|
D|----------------------------------------------------|
A|----------------------------------------------------|
E|----------------------------------------------------|
B|-3~-2p0-2p0-2-3---2p0-2p0-3--2p0-2p0-0--------------|

G|-------4-x-----------4~-4/-|
D|---------------------------|
A|-2/3-X------2~--X--X-------|6x
E|---------------------------|
B|---------------------------|

G|-4---2----------------------------------|
D|----------6~----------------------------|
A|-2---0----------------------------------|
E|----------4~----------------------------|
B|-----------------3p0-0-3p0-0-3p0-0-0----|

G|-4---2/---------------------------------|
D|----------6~----------------------------|
A|-2---0----------------------------------|
E|----------4~----------------------------|
B|-----------------3p0-0-3p0-0-3p0-0-0----|

G|-4---2----------------------------------|
D|----------6~----------------------------|
A|-2---0----------------------------------|
E|----------4~----------------------------|
B|-----------------3p0-0-3p0-0-3p0-0-0----|

G|-4---7----9~-------|
D|-------------------|
A|-2---0----7~-------|
E|-------------------|
B|-------------------|

G|----------------------------------|
D|----------------------------------|
A|----------------------------------|4x
E|----------------------------------|
B|-3p0-0-3p0-0-3p0-0-0--------------|

G|--------------------------------2-|
D|----------------------------------|
A|--------------------------------0-|8x
E|----------------------------------|
B|-3p0-0-3p0-0-3p0-0-0--------x-x---|

G|--------------------------------7-|
D|----------------------------------|
A|----------------------------------|
E|----------------------------------|
B|-3p0-0-3p0-0-3p0-/----------------|

G|--------------------------------9-|
D|----------------------------------|
A|----------------------------------|
E|----------------------------------|
B|-3p0-0-3p0-0-3p0-/----------------|

G|-------------------------------11-|
D|----------------------------------|
A|----------------------------------|
E|----------------------------------|
B|-3p0-0-3p0-0-3p0-/----------------|

G|----------------------------------|
D|----------------------------------|
A|----------------------------------|
E|----------------------------------|
B|-3p0-0-3p0-0-3p0-0~---------------|

(Pause)


Final Pre-Chorus:

G|--------------------------------|
D|--------------------------------|
A|--------------------------------|8x
E|--------------------------------|
B|3-2-2-3-2-2-3-2-2-3-2-2-3-2-0-2-|


Final Chorus:

G|-------------------------------------4-----4-----2-----2-----|
D|-----------------------------------4---4-------2---2-------5-|
A|---------------------------------2-------2---0-------0-------|
E|---------------------------------------------------------3---|
B|-0-7-8-0-7-8-0-7-8-0-5-0-3-5-2-0-----------------------------|
                                                                       x4
G|-------------------------------------4-----4-----6-----6-----7-|
D|-----------------------------------4---4-------6---6-------7---|
A|---------------------------------2-------2---4-------4---5-----|
E|---------------------------------------------------------------|
B|-0-7-8-0-7-8-0-7-8-0-5-0-3-5-2-0-------------------------------|


Outro:

G|--------------------------------------------2-|
D|----------------------------------------------|
A|----------------------------------------------|
E|----------------------------------------------|
B|-3-2-0-2-5-0-2-3-0-0--0--0--0--0--3-2-0--0----|

G|-------------------------------------------|
D|-----------------------------------------2-|
A|-------------------------------------------|
E|-------------------------------------------|
B|-3-2-0-2-5-0-0-0--0--0-3-2-3-5-0-0--0--0---|

G|--------------------------------------------2-|
D|----------------------------------------------|
A|----------------------------------------------|
E|----------------------------------------------|
B|-3-2-0-2-5-0-2-3-0-0--0--0--0--0--3-2-0--0----|

G|-----------------------------------------2~----------|
D|-----------------------------------------------------|
A|-----------------------------------------------------|
E|-----------------------------------------------------|
B|-3-2-0-2-5-0-0-0--0--0-3-2-3-5-0-0--0--0-------------|



************************************

| x  Dead note
| h  Hammer-on
| p  Pull-off
| /  Slide up
| \  Slide down
| ~  Vibrato

Almost there ...

Sign in to get your own page with links to favourite songs and more. You are just one click away...

Login with Facebook Login with Google