Log in

One click and you are in

Login with Facebook Login with Google

Why sign up and log in

Guitar Tabs Explorer
Mudvayne bass tabs for A world so cold

Bass tabs

Intro
F|-------------------------------------------------------------------------|
C|---7--9--10--12--10-10--9--7--9--10--9--10-9-7-----------7--9--10-9-7----|
G|-------------------------------------------------8--10-------------------|
C|-------------------------------------------------------------------------|

F|-------------------------------------|
C|---------------------10-9-7-5--------|
G|--7--8--10----5/10-------------------|
C|-------------------------------------|

Chorus(0:56)
F|--------------------------------------------------------------------------|
C|--------------------------------------------------------------------------|
G|------------------------------------------------------3-3-3-3-2-2-2-------|
C|-3-3---3-3---3-3-------\-------3-3---3-3---3-3----------------------------|

F|-----------------------------------------------------------------------------|
C|-----------------------------------------------------------------------------|
G|-----7h8p7--5-5-------/5-------------7h8p7---5-5--------/10-10-10-10---------|
C|-0-0-------------0-0------6-6---0-0---------------0-0------------------------|

F|---------------------------------------------------------------------------------|
C|---------------------------------------------------------------------------------|
G|-----------------------3-3-3-3-2-2-2-----------------------3-3-3-3-2-2-2---------|
C|---3-3---3-3---3-3----------------------3-3---3-3---3-3--------------------------|

F|----------------------------------------------------------------------------|
C|----------------------------------------------------------------------------|
G|-----7h8p7--5-5-------/5--------------7h8p7---5-5-------/10-10-10-10--------|
C|-0-0-------------0-0------6-6---0-0---------------0-0-----------------------|

Pre-Verse(1:24) (very quiet)
F|------------------------------------------------|
C|-----7--9--10--12--10-10--9--7------------------|
G|-----------------------------------------8------|
C|------------------------------------------------|

verse 2(1:32)(pretty much the same as the verse, with some changes)
F|---------------------------------------------------------------|
C|---7--9--10--12--10--9-----------------------------------------|
G|-------------------------/12--14--15--14--15-14-12-------------|
C|---------------------------------------------------------------|

F|-------------------------------------------------------------|
C|-------------7--9--10-9-7----------------------10-9-7-5------|
G|----8--10-------------------7--8--10-----5/10----------------|
C|-------------------------------------------------------------|

X = muted
F|------------5X-------------------------------12h14-12-10-9-9h10p9-------------|
C|----7---7-------7---10---12---/7-10X-7X------------------------------10-7-----|
G|------------------------------------------------------------------------------|
C|------------------------------------------------------------------------------|

F|---------------------------------------------------------------|
C|------------7--9--10-9-7------------------------10-9-7-5-------|
G|----8--10-------------------7--8--10-----5/10------------------|
C|---------------------------------------------------------------|

Chorus|Play here(2:00)
After the Chorus?.(2:47)
F|------------------------------------------------------------------------|
C|------------------------------------------------------------------------|
G|---------------------------------------------5-3-0----------------------|
C|-0-0-0---0---0-0-0-0---3-3-3-3---5-5-5---5---------5--5-5-5-------------|

repeat at 3:07
F|------------------------------------------------------------------|
C|--------8------10-----7-----8-----7------7------------------------|
G|-----8------10------7-----8-----7------7--7-----------------------|
C|---8------10------7-----8-----7------7----------------------------|

repeat 3:14
F|-----------------------------------------------/7-5----------------------|
C|-------0---0-0------0-----3---------5---5--------------------------------|
G|-----0-------------0----3---3-----5-----------------0--------------------|
C|--0-------------0----3----------5----------------------5---5-5-5--------|

(3:20)
F|-----------------------------------------------------------------|
C|--------8------10-----7-----8-----7------7-----------------------|
G|-----8------10------7-----8------7------7--7---------------------|
C|-8------10----7-7-----8----7-7------7--------------------------|

F|-----------------------------------------------7/9---5--------------------|
C|-------0---0-0------0-----3---------5---5---------------5---5-5-5---------|
G|-----0-------------0----3---3-----5---------------------------------------|
C|---0-------------0----3----------5----------------------------------------|

F|-----------------------------------------------------------------|
C|--------8------10-----7-----8-----7------7-----------------------|
G|-----8------10-------7-----8-----7------7--7---------------------|
C|---8------10-----7-7-----8-----7------7--------------------------|
(3:40)
F|-------------------------------------------------------------------------------------|
C|-------------------------------------------------10/12\10----------------------------|
G|----------------------------------------------10----------10-------------------------|
C|-0-0-0-0-12-12-12-12---12-14h15p14-12-12---10----------------10----10-12-10?--|

F|-------------------------------------------------------------------|
C|---------8--------10----------7-----8-----7------7-----------------|
G|------8-------10------10-----7-----8-----7------7---7--------------|
C|---8-------10---------------7-----8-----7------7-------------------|

F|-----------------------------------------------------------------------|
C|-----------------------------------------------------------------------|
G|-----------------------------------------------------------------------|
C|-3-3-3-3-3-3-3-3-3-3-3-3-3-3-3-3---7-7-7-7-7-7-7-7-7-7---7-9-10-9-7----|

F|---------------------------------------------------------------|
C|---------------------------------------------------------------|
G|---------------------------------------------------------------|
C|-3-3-3-3-3-3-3-3-3-3-3-3-3-3-3-3---x-x-x-x---7-7-7-7-7-7-7---0-|r

F|----------------------------------------------------------------------------|
C|----------------------------------------------------------------------------|
G|-------------------------------3-3------------------------------------------|
C|-3-3-3-3-3-3-3-3-3-3-3-3-3-3--------7-7-7-7-7-7-7-7-7-7-7-7-7-7-7-7---------|

F|----------------------------------------------------------------------------------|
C|----------------------------------------------------------------------------------|
G|---------------------------------------------------------------------------------|
C|-3-3-3-3-3-3-3-3-3-3-3-3-3-3-3-3---x-x-x-x---7-7-7-7-7-7-7-7-0-0-0-0-0-0-0-0------|

F|-------------------------------------------------------------------------|
C|---------------------------------------7-------7-------7-------7---------|
G|------------------/8-8-7-7-5-5-3-3---7---7---7---7---7--7---7---7--------|
C|-3-3-3-3-3-3-3-3-------------------7-------7--------7------7-------------|

(4:26)
F|-------------------------------------------------------------------------------|
C|-------------------------------------------------------------------------------|
G|-------------------------------------------------------------------------------|
C|-3-3-3-3-3-3-3-3-3-3-3-3-3-3-3-3---x-x-x-x---7-7-7-7-7-7-7-7-0-0-0-0-0-0-0-0---|

F|--------------------------------------------------12h14-12-10-9-9h10p9--------|
C|-----------------------------------------7-10-7------------------------10-7---|
G|-------------------/8-8-7-7-5-5-3-3----7--------------------------------------|
C|-3-3-3-3-3-3-3-3---------------------7----------------------------------------|

F|---------------------------------------------------------------|
C|---------------------------------------------------------------|
G|---------------------------------------------------------------|
C|-3-3-3-3-3-3-3-3-3-3-3-3-3-3-3-3---x-x-x-x---7-7-7-7-7-7-7---0-|r

Outro(4:45) (repeat until the song fades out)
F|--------------------------------------------------------------------------|
C|-----3------------3------3-----7---7-7------7-----7-----------------------|
G|---3----3-3------3------3-----7------------7-----7--7---------------------|
C|-3--------------3------3-----7------------7-----7-------------------------|

F|-------------------------------------------------------------|
C|-----3-------------3-----3-----7----7------------------------|
G|---3----3-3------3------3-----7----7-------------------------|
C|-3--------------3------3-----7----7-----0----0-0-------------|

Almost there ...

Sign in to get your own page with links to favourite songs and more. You are just one click away...

Login with Facebook Login with Google