Log in

One click and you are in

Login with Facebook Login with Google

Why sign up and log in

Guitar Tabs Explorer
Mudvayne guitar tabs for 1000 mile journey

Guitar tabs

Tabbed By: Bill Dowdle
Tuning: Drop A chord diagramC majorC

INTRO:

|--------------------------------------------------------|
|--------------------------------------------------------|
|--------------------------------------------------------|
|--------------------------------------------------------|
|-----------------------------------------6-5-3-6-5-3-0--|
|--00006536536-0000653542-1-0-00006536536-6-5-3-6-5-3-0--|
   ....        ..........    ....           . . . . . .
VERSE 1:

|--------------------------------------------------------|
|--------------------------------------------------------|
|--------------------------------------------------------|
|--------------------------------------------------------|x1
|-----------------------------------------6-5-3-6-5-3-0--|
|--00006536536-0000653542-1-0-00006536536-6-5-3-6-5-3-0--|
   ....        ..........     ....          . . . . . .
|-----------------------|
|-----------------------|
|-----------------------|
|-----------------------|
|--0-6-5-3-6-5-3-3-3-5--|
|--0-6-5-3-6-5-3-3-3-5--|
     . . . . . .

CHORUS:
|------------------------------------------------------------|
|------------------------------------------------------------|
|------------------------------------------------------------|
|--55555555555555554444444455554444--------------------------|
|--5555555555555555------------------------------------------|
|--5555555555555555-----------------3-0-0-3-3-3-3-0-0-3-3-0--|

|--------------------|
|--------------------|
|--9999999999999999--|
|--7777777777777777--|
|--7777777777777777--|
|--7777777777777777--|

|----------------------------------------------------------|
|----------------------------------------------------------|
|----------------------------------------------------------|
|--555555555555555544444444777788881010101088888888101088--|
|--5555555555555555----------------------------------------|
|--5555555555555555----------------------------------------|

|------------------|
|------------------|
|------------------|
|--77777755553333--|
|------------------|
|------------------|
VERSE 2 (PLAY VERSE 1)

CHORUS

BREAKDOWN 1

|----------------------------------------|
|----------------------------------------|
|----------------------------------------|
|----------------------------------------|
|--000010101010888877775555888877773333--|
|--000010101010888877775555888877773333--|
   ....................................


BREAK (ACOUSTIC PART)
|--------------------------------------------------------------------|
|--------------------------------------------------------------------|
|--------------------------------------------------------------------|
|--5-5-5-5-5-5-5-7-8-8-8-8-8-8--10-8-7-7-7-7-7-7-7-7-3-3-3-3-3-3-0-0-|x1
|--------------------------------------------------------------------|
|-5-5-5-5-5-5-5-7-8-8-8-8-8-8-10--8-7-7-7-7-7-7-7-7-3-3-3-3-3-3-0-0--|

BREAKDOWN 2 (PLAY THIS WHOLE BREAKDOWN TWICE)

|-----------------------------------------------------------|
|-----------------------------------------------------------|
|-----------------------------------------------------------|
|--5-5-5-5-5--5-5-5-5-7-7-7-7-8-8-8-8-8--8-8-8-8-8-8-8-8-8--|
|--5-5-5-5-5--5-5-5-5-7-7-7-7-8-8-8-8-8--8-8-8-8-8-8-8-8-8--|
|--5-5-5-5-5--5-5-5-5-7-7-7-7-8-8-8-8-8--8-8-8-8-8-8-8-8-8--|

|-----------------------------------------------------------|
|-----------------------------------------------------------|
|-----------------------------------------------------------|
|--7-7-7-7-7--7-7-7-7-7-7-7-7-7-3-3-3-3-3--0-0-0-0-0-0-0-0--|
|--7-7-7-7-7--7-7-7-7-7-7-7-7-7-3-3-3-3-3--0-0-0-0-0-0-0-0--|
|--7-7-7-7-7--7-7-7-7-7-7-7-7-7-3-3-3-3-3--0-0-0-0-0-0-0-0--|

BRIDGE
		 (x1)
|---------------------------------------|------------------------|
|---------------------------------------|------------------------|
|--7/9/7---7/9/7-/5/7-5-------7---------|--7---7b--7-------7b----|
|x--------------------------------------|x-----------------------|
|--5/7/5---5/7/5-/3/5-3-------5---------|--5---5b--5-------5b----|
|---------------------------------------|------------------------|

BUILD CHORUS (*Slightly different from next chorus)

|----------------------------------------------------------------------|
|----------------------------------------------------------------------|
|----------------------------------------------------------------------|
|--555555555555555544444444555544881010101088888810108877777755553333--|x1
|--5555555555555555----------------------------------------------------|
|--5555555555555555----------------------------------------------------|

OUTRO CHORUS

|------------------------------------------------------------------------|
|------------------------------------------------------------------------|
|------------------------------------------------------------------------|
|--55555555555555554444444477778888101010108888881010887777777755553333--|x1
|--5555555555555555------------------------------------------------------|
|--5555555555555555------------------------------------------------------|





OUTRO

|------------------|
|------------------|
|------------------|
|--3-3-5-0---------|
|--3-3-5-0---------|
|--3-3-5-0---------|


LEGEND:
. PALM MUTE
~ HOLD NOTE
/ SLIDE
x1 REPEAT LINE ONCE
(x1) REPEAT MEASURE ONCE

Almost there ...

Sign in to get your own page with links to favourite songs and more. You are just one click away...

Login with Facebook Login with Google