Log in

One click and you are in

Login with Facebook Login with Google

Why sign up and log in

Guitar Tabs Explorer
Mudhoney tabs for Suck you dry

Guitar tabs

Suck You Dry
                                    by
                                 Mudhoney

From the album Piece of Cake.

Transcribed by Jonathan Garvin (jgarvin@its.dundee.ac.uk)

Normal Tuning. (To play as Mudhoney - tune down 1/2 and move all chords
                and notes one step. It doesn't make any difference tho'.)

Intro.


  A chord diagramG#G# / A chord diagramF#F# / A chord diagramG#G# / A chord diagramF#F# / A chord diagramG#G#    X3   |_ X2
  A chord diagramD#D# A chord diagramC#C# A chord diagramBB                        |


Verses.

 Repeat Intro Riff For Verses.


 Chorus.

 A chord diagramG#G#             A chord diagramBB             A chord diagramC#C#
-------------------------------------------------| see note.
-------------------------------------------------|              |
-------------------------------------------------|              |- X4
-6-x-6-x-6-x-6--9-x-9-x-9-x-9-11-x-11-x-11-x-11--|  A chord diagramG#G#  A chord diagramBB  A chord diagramC#C#   |
-6-x-6-x-6-x-6--9-x-9-x-9-x-9-11-x-11-x-11-x-11--|
-4-x-4-x-4-x-4--7-x-7-x-7-x-7--9-x--9-x--9-x--9--|

Fill 1
|----------------------
|-----9-6---9--6-------                           Note.
|----------------------
|----------------------                         Guitar 1 plays chords
|----------------------                         Guitar 2 plays:
|----------------------                            1st time - Fill 1
                                                   2nd time - Fill 2
                                                   3rd time - Fill 1
Fill 2                                             4th time - Fill 3
|----------------------
|------9-6---9b--6-----
|----------------------
|----------------------
|----------------------
|----------------------

Fill3
|----------------------
|-------6~-------------
|----------------------
|----------------------
|----------------------
|----------------------


 Solo.

All on bottom three strings.

--------------------------------------------------11-14-11/16-13-11-11-11|e
-9-9-9-9-12-9-------------------------7-9/12-9/14------------------------|
--------------7-9-7b-7b-7B----7pb-7pb------------------------------------|


-----------|e
-----------|
--8-11b-8--|


Repeat the chorus and then thats it!!


Jonathan Garvin.....Thank-You, I've done my best!

Almost there ...

Sign in to get your own page with links to favourite songs and more. You are just one click away...

Login with Facebook Login with Google