Log in

One click and you are in

Login with Facebook Login with Google

Why sign up and log in

Guitar Tabs Explorer
Mudhoney tabs for Overblown

Guitar tabs with lyrics

M U A chord diagramD MajorD H O N A chord diagramE MajorE Y  ==>  ''OVERBLOWN''
                     from the SINGLES soundtrack
           Transcribed by A chord diagramD MajorD Cohen (cohend@birisc.cs.biu.ac.il)
           +++++++++++++++++++++++++++++++++++++++++++++++++++
 Intro/Verse:
    Repeat Twice             Repeat Twice
    (in intro)                (in intro)


      A chord diagramA augmentedA     A chord diagramD MajorD    A chord diagramA augmentedA           A chord diagramG+G       A chord diagramC majorC     A chord diagramG+G
1|---------------------|  |------------------------|
2|---------------------|  |------------------------|
3|----------7----------|  |----------5-------------|
4|-7--7--5--7--5--7--5-|  |-5--5--3--5--3--5--3----|
5|-7--7--5--5--5--7--5-|  |-5--5--3--3--3--5--3----|
6|-5--5--5-----5--5--5-|  |-3--3--3-----3--3--3----|
  Everybody loves us...


 Bridge:

    A chord diagramC majorC    A chord diagramD MajorD   A chord diagramG+G

1|-3--3--5--3--3---|
2|-5--5--7--5--3---|
3|-5--5--7--5--4---|
4|-5--5--7--5--5---|
5|-3--3--5--3--5---|
6|-------------3---|
   yay yay...


Chorus:
          A chord diagramA augmentedA                 A chord diagramFF                                A chord diagramE MajorE
1|---------------------1--1--1--1---|                     |--0--|
2|-2--2--2--2--3--2----1--1--1--1---| At the last chorus  |--0--|
3|-2--2--2--2--2--2----2--2--2--2---| they play this at   |--1--|
4|-2--2--2--2--2--2----3--3--3--3---| the end==>          |--2--|
5|-0--0--0--0--0--0----3--3--3--3---|                     |--2--|
6|---------------------1--1--1--1---|                     |--0--|
   overblown......                                  its so overdone!


  I dunno all the lyrics, and no solo :( so listen to the song yerself.
  Now people, i was surprised there is no MUDHONEY directory!
  They're a great band and i know lotsa you listen to them!!!
  Please send out more mudhoney songs!!!

Almost there ...

Sign in to get your own page with links to favourite songs and more. You are just one click away...

Login with Facebook Login with Google