Log in

One click and you are in

Login with Facebook Login with Google

Why sign up and log in

Guitar Tabs Explorer
Mudhoney tabs for Generation spokesmodel

Guitar tabs

generation spokesmodel
by:mudhoney
transcribed by: mike abraham <mabe00000@aol.com>


i only know the intro/verse and the chorus
i'll figure the rest out later,the main riffs are all you need to impress
your friends anyway

intro/verse:

--------------------------------|
--------------------------------|
--------------------------------|
-8-8------7-7-------------------|
-8-8---8--7-7-------------------|
-6-6-6-0--5-5-5-0--------------|


chorus:

well_well     we're all gone
----------------------------------------|
----------------------------------------|
----------------------------------------|
-8-/4-------5-5-/3---------------------|
-8-/4-------5-5-/3---------------------|
-6-/2-------3-3-/1---------------------|

well_well      ride on ride on ride on
-------------------------------------------------------|
-------------------------------------------------------|
-------------------------------------------------------|
-8-/4--------4---5-5-5-----5-/4-----------------------|
-8-/4--------4---5-5-5-----5-/4-----------------------|
-6-/2--------2---3-3-3-----3-/2-----------------------|

hope you can decipher it,please tell me if it's wrong
thanks,mike   <mabe00000@aol.com>


all we are are slaves to conformity
mabe00000@aol.com
love         /\/\|KE

Almost there ...

Sign in to get your own page with links to favourite songs and more. You are just one click away...

Login with Facebook Login with Google