Log in

One click and you are in

Login with Facebook Login with Google

Why sign up and log in

Guitar Tabs Explorer
Mudhoney tabs for Drinking for two

Guitar tabs

Mudhoney-Drinking for Two
Tabbed by BigBangBert


Intro + Lyrics (play 6 times)
|------------------------|
|------------------------|
|------------------------|
|------------------------|
|---5-5-5-3-5-3----------|
|-5-------------3-1-3----|
Note: You can either use this tab in Powerchords


Pre-Chorus (play 2 times)
|----------------------------|
|----------------------------|
|-------------9-9-9-7-7-7----|
|-7-7-7-9-9-9-9-9-9-7-7-7----|
|-7-7-7-9-9-9-7-7-7-5-5-5----|
|-5-5-5-7-7-7----------------|

Alternative Pre-Chorus (play 2 times)
|----------------------------|
|----------------------------|
|-------------7-7-7-5-5-5----|
|-7-7-7-9-9-9-7-7-7-5-5-5----|
|-7-7-7-9-9-9-5-5-5-3-3-3----|
|-5-5-5-7-7-7----------------|


Note: Pick the one, you like most. I prefer the Alternative one, cuz it sounds better. But find out on your own.


Chorus (play 4 times)
|--------------|
|--------------|
|--------------|
|--------------|
|-5-3-5-3------|
|---------3----|

So here's the song again

Intro + Lyrics (6 times)

Pre-Chorus (2 times)

Chorus (4 times)

Intro + Lyrics (2 times)

Pre-Chorus (2 times)

Chorus (4 times)

Solo (didn't know how to tab that, feel free, to add)

Intro + Lyrics (4 times during the solo)

Pre-Chorus (2 times)

Chorus (4 times)

You're done!

Almost there ...

Sign in to get your own page with links to favourite songs and more. You are just one click away...

Login with Facebook Login with Google