Log in

One click and you are in

Login with Facebook Login with Google

Why sign up and log in

Guitar Tabs Explorer
Mudhoney tabs for Come to mind

Guitar tabs

Come to Mind By Mudhoney

This is the nearest i could get to the song,I beleive
this is the authorĀ“s way to play!
Intro/Verse:
(Guitar 1)
A chord diagramE MajorE                   A chord diagramG+G
-0----0--0-0---------00-------------------------------------------------------
-0----0--0-0---------00-------------------------------------------------------
-1----1--1-1---------00-------------------------------------------------------
-2----2--2-2---------00-------------------------------------------------------
-2----2--2-2---------22-------------------------------------------------------
-0----0--0-0---1~2~3-33-------------------------------------------------------
(Guitar 2) (Repeat Four Times Then Play Below)

---3--3--3-3-3-3-3-3-3----3-3-3-3-3-3-3-3-3-3-3-3-0-------------------------
---0--0--0-0-0-0-0-0-0----0-0-0-0-0-0-0-0-0-0-0-----3-0---0--0-0---0---0-0--
----------------------------------------------------------------------------
----------------------------------------------------------2--2-2---2---2-2--
----------------------------------------------------------------------------
----------------------------------------------------------------------------
(Guitar 2) (Enters Fifth Time Through) (Repeat Once
Simile Then Play Below)

----------3-3-3-------------------------------------------------------------
-0---0-0--0-0-0-0---0-0-----------------------------------------------------
----------------------------------------------------------------------------
-2---2-2--------2---2-2-----------------------------------------------------
----------------------------------------------------------------------------
----------------------------------------------------------------------------


Chorus:
 A chord diagramC majorC                       A chord diagramD MajorD
----------------------------------------------------------------------------
----------------------------------------------------------------------------
-5--5-5-5-5--5-5-5-5-5-5-7--7-7-7-7-7-7-7-7-7-7-----------------------------
-5--5-5-5-5--5-5-5-5-5-5-7--7-7-7-7-7-7-7-7-7-7-----------------------------
-3--3-3-3-3--3-3-3-3-3-3-5--5-5-5-5-5-5-5-5-5-5-----------------------------
----------------------------------------------------------------------------
(Guitar 1)
------------------------------------------3-0-------------------------------
----------------------------------------------3-0-0-------------------------
-5--5-5-5-5--5-5-5-5-5-5-7--7-7-7-7-7-7-7-----------------------------------
-5--5-5-5-5--5-5-5-5-5-5-7--7-7-7-7-7-7-7-----------------------------------
-3--3-3-3-3--3-3-3-3-3-3-5--5-5-5-5-5-5-5-----------------------------------
----------------------------------------------------------------------------
(Guitar 2)

 A chord diagramAbAb
----------------------------------------------------------------------------
----------------------------------------------------------------------------
-2-2-2-2-2-2-2-2-2-2-2-2-2-2-2-2--------------------------------------------
-2-2-2-2-2-2-2-2-2-2-2-2-2-2-2-2--------------------------------------------
-0-0-0-0-0-0-0-0-0-0-0-0-0-0-0-0--------------------------------------------
----------------------------------------------------------------------------
(Guitar 1) (Both Guitars Repeat Once Simile)
----------------------------------------------------------------------------
-------------------------------3(5)-----------------------------------------
-2-----2---------2-----2----------------------------------------------------
-2-----2---------2-----2----------------------------------------------------
-0-----0---------0-----0----------------------------------------------------
----------------------------------------------------------------------------
(Guitar 2)


Solo:
 A chord diagramEbmEbm
-5-5-5-5-5-5-5-5-5-5-5-5----------------------------------------------------
-----------------------------------------------------------------5----------
-------------------------7~--5---5--5-5-7~--7-5-7-7(9)~--7-5-5-5-5-7(9)~(9)-
-------------------------------7--------------------------------------------
----------------------------------------------------------------------------
----------------------------------------------------------------------------
(Guitar 1) (Guitar 2 Plays the Same as During the

Intro)

------------------------------------------------------------------------12--
---------------/9--9-9---9-9-9-12-12-12-12-12-12-10--8h10p8---8----8-12-12--
-(9)7p5-7-7-5--/9--------9-9-9-12-12-12-12-12-12------------9---9-----------
----------------------------------------------------------------------------
----------------------------------------------------------------------------
----------------------------------------------------------------------------
(Guitar 1)

-12-12-15(16)-12-12---------------------------------------------------------
-12-12--------12-12------------------14-14-12\--9-9-9-9\--------------------
---------------------14(16)-12h14p12-14-14-12\--9-9-9-9\---9--9\-9-9-9-9-9--
-----------------------------------------------------------------9-9-9-9-9--
----------------------------------------------------------------------------
----------------------------------------------------------------------------
(Guitar 1)

-----2(3)-------------------------------------------------------------0-5-5-
----------4------------------------------------------4p1-4-4---4-1----------
-9----------4-2-2-2-4-2(4)~---2(4)-(4)2-0--------/5----------------4--------
-9----------------------------------------2--2-2----------------------------
----------------------------------------------------------------------------
----------------------------------------------------------------------------
(Guitar 1)

-5-5-5-5-5-5--/9-9-9-9\--/9-9-9-9-9---9--9--9-------------------------------
--------------/9---------/9-9-9-9-9--10-10-10-8----8---8-10-10-8---10-10----
-------------------------------------------------9---9-----------9----------
----------------------------------------------------------------------------
----------------------------------------------------------------------------
----------------------------------------------------------------------------
(Guitar 1)

-----------------12-12-12-12-12-12-----3-3-3-0------5-5-5-5-5---------------
-10(12)10-8-8-8--12-12-12-12-12-12-----0-0-0-0------0-0-0-0-0--3(5)-3(5)-3--
-------------------------------------0----------0-0-------------------------
----------------------------------------------------------------------------
----------------------------------------------------------------------------
----------------------------------------------------------------------------
(Guitar 1)

-------------------2h3-3--0-------------5-3-5-3-5~---3-5-7(9)~--5-----------
-0---0-3--3-0--2h3----------3-3--3-0-3----------------------------8-8~------
---2------------------------------------------------------------------------
----------------------------------------------------------------------------
----------------------------------------------------------------------------
----------------------------------------------------------------------------
(Guitar 1)

-0-0-0---0--3-3-3-3--3-3-3-3-3-3-3-3-3-3-3-0------3(4)-3(4)-3(4)-3-0---0----
-5-5-5--/5--5-5-5-5--0-0-0-0-0-0-0-0-0-0-----3-0--0----0----0--------3---3--
----------------------------------------------------------------------------
----------------------------------------------------------------------------
----------------------------------------------------------------------------
----------------------------------------------------------------------------
(Guitar 1)

-3(4)(4)(4)-------------------------------0---------------------------------
-0----0--0----------------------------10--8--------8--10(11)-12-10(11)10-8--
------------/9-9-9p7-9-9p7---9-9h7-7---------9-9-9--------------------------
---------------------------9------------------------------------------------
----------------------------------------------------------------------------
----------------------------------------------------------------------------

----------------------------------------------------------------------------
--------------------------------------10(12)~--8--12(14)~-------------------
-9---9-9-9--10--9(10)9--9(10)9--12-12----------9----------------------------
----------------------------------------------------------------------------
----------------------------------------------------------------------------
----------------------------------------------------------------------------
(Guitar 1)


Ending:
 (Guitar 1)
A chord diagramEbmEbm
----------------------------------------------------------------------------
----------------------------------------------------------------------------
----------------------------------------------------------------------------
-2--------------------------------------------------------------------------
-2--------------------------------------------------------------------------
-0--------------------------------------------------------------------------
(Guitar 2)
----------------------------------------------------------------------------
----------------------------------------------------------------------------
-7(9)----(8)-----(9)----7\4-------------------------------------------------
----------------------------------------------------------------------------
----------------------------------------------------------------------------
----------------------------------------------------------------------------


questions/sugestions

e-mail:fccct@yahoo.com

Almost there ...

Sign in to get your own page with links to favourite songs and more. You are just one click away...

Login with Facebook Login with Google