Log in

One click and you are in

Login with Facebook Login with Google

Why sign up and log in

Guitar Tabs Explorer
Mud bass tabs for Tiger feet

Bass tabs

Tiger Feet
First UK number 1 for the Glam Rock band Mud in 1974
Bass performance Ray Stiles. Tab by bass50611. Welcome to my tab
Of this great Seventies glam rock single. What a tremendous song
Number 1 all over Europe. Comments at bass254@btinternet.com

Drum Intro With:
G|--------------|---------------------------------------------------|
D|-8 BARS-DRUM--|-----------------------------4-4-4-----------------|
A|-GUITAR START-|-2-2-2-2-2-2-2-2---2-2-2-2-2-------2-2-2-2-2-2-2-2-|
E|--------------|---------------------------------------------------|

G|---------------------------------|
D|-----------4-4-4-----------2-3-4-|
A|-2-2-2-2-2-------2-2-2-2-2-------|
E|---------------------------------|
Verse:
G|-------------------------------------------------------------------|
D|-------------------------------------------------------------------|
A|-----2-4-----2-4----1-4-1---1-4-1-----2-4-----2-4----1-4-1---1-4-1-|
E|-0-4-----0-4------2-------2-------0-4-----0-4-------2------2-------|


Pre-Chorus 1:
G|-------------------------------------------------------------------|
D|---------------------------------------------------------------4-4-|
A|------------1-4-1------------1-4-1----------------------1-1-4-4----|
E|-0-0-0-0---2------0-0-0-0---2------0-0-0-0-0-0-0-0---2-2-----------|


Chorus 1:
G|-------------------------------------------------------------------|
D|-------------------2-2-------------------------------2-2-----------|
A|-2-2----2-2----0-0-------2-2-2-2---2-2----2-2----0-0-------2-2-2-2-|
E|----2-2----2-2------------------------2-2----2-2-------------------|

           . .     . .     . .
G|-----------------------------------------------------------------|
D|-----------------------------------------------------------2-3-4-|
A|-0-0-0-0---2-2----------2-2----------2-2----------2-2-----2------|
E|--------------2-2--2--2----2-2--2--2----2-2--2--2-----2--2-------|

Instrumental 1:
G|-----------------------------------------------------------|
D|------------------------4-4-4------------------------4-4-4-|
A|-2-2----2-2----2-2----2-------2-2----2-2----2-2----2-------|
E|----2-2----2-2----2-2------------2-2----2-2----2-2---------|
)
G|------------------|
D|------------2-3-4-|
A|-2-2-2-2--2-------|
E|------------------|

Repeat Verse, Pre Chorus & Chorus 1:


Instrumental 2:
G|-----------------------------------------------------------|
D|------------------------4-4-4------------------------4-4-4-|
A|-2-2----2-2----2-2----2-------2-2----2-2----2-2----2-------|
E|----2-2----2-2----2-2------------2-2----2-2----2-2---------|

           (Break)
G|---------------------|
D|------------2-3-4----|
A|-2-2-2-2--2--------2-|
E|---------------------|

Drum Solo:   .        .        .        .
G|--------|-------|--------|-------|--------|-------|--------|-------|
D|-COUNT--|-------|-COUNT--|-------|-COUNT--|-------|-COUNT--|-------|
A|-4 BARS-|-0---2-|-4 BARS-|-0---2-|-4 BARS-|-0---2-|-4 BARS-|-0---2-|
E|--------|-------|--------|-------|--------|-------|--------|-------|

      .   . .  .    .
G|--------|-------------------------------------------|
D|-COUNT--|-------------------------------------------|
A|-4 BARS-|-0---2-2--2----0---2-2--0--2-2-2-2-2-2-2-2-|
E|--------|-------------------------------------------|


Pre-Chorus 2:
G|--1-4-1---3-6-3---1-4-1---3-6-3---1-4-1---1-4-1-----------------|
D|-2-------4-------2-------4-------2-------2------4-4-4-4-4-4-4-4-|
A|----------------------------------------------------------------|
E|----------------------------------------------------------------|


Chorus 2:
G|--------------------------------------------------------------|
D|-------------------2-2----------------------------2-2---------|
A|-2-2----2-2----0-0-----2-2-2-2---2-2----2-2----0-0----2-2-2-2-|
E|----2-2----2-2----------------------2-2----2-2----------------|

G|---------------------------|
D|---------------------------|
A|---------------------7-8-9-|
E|-5-5-5-5---7-7-7-7-7-------|


Outro:
G|-------------------------------------------------------------------|
D|-------------------------------------------------------------------|
A|-----------------------------------7-7-7-7-7-7-7-7-----------------|
E|-7-7-7-7-7-7-7-7---7-7-7-7-7-7-7-7-----------------7-7-7-7-7-7-7-7-|

G|----------------------------------|
D|----------------------------------|
A|-9-9-9-9---7-7-7-7----------7-8-9-|
E|-------------------7-7-7-7-7------|

Almost there ...

Sign in to get your own page with links to favourite songs and more. You are just one click away...

Login with Facebook Login with Google