Log in

One click and you are in

Login with Facebook Login with Google

Why sign up and log in

Guitar Tabs Explorer
Mud bass tabs for The secrets that you keep

Bass tabs

std tuning


INTRO
G |-----------------|-----------------|-----------------|-----------------|
D |-----------------|---------------2-|-4-----4--2------|---------------2-|
A |-----------------|-------------4---|-------------4---|-5-------5-4-5---|
E |-0---2---4---5---|---------4-5-----|-----------------|-----------------|
  1 & 2 & 3 & 4 &  1 & 2 & 3 & 4 &  1 & 2 & 3 & 4 &  1 & 2 & 3 & 4 &

G |-----------------|-----------------|-----------------|-----------------|
D |-----------------|-----------------|-4-----4--2------|---------2-------|
A |-----------------|-----------------|-------------4---|-5---------------|
E |-0---2---4---5---|---------4-5-4-5-|-----------------|-----------------|
  1 & 2 & 3 & 4 &  1 & 2 & 3 & 4 &  1 & 2 & 3 & 4 &  1 & 2 & 3 & 4 &

G |-----------------|
D |-----------------|
A |-------7---7-----|
E |-5---5-------5---|
  1 & 2 & 3 & 4 &


VERSE
G |-----------------|-----------------|-----------------|-----------------|
D |-----------------|-------------2---|-4-----4--2------|---------------2-|
A |-----------------|---------4-------|-------------4---|-5-------5-4-5---|
E |-0---2---4---5---|-----5-----------|-----------------|-----------------|
  1 & 2 & 3 & 4 &  1 & 2 & 3 & 4 &  1 & 2 & 3 & 4 &  1 & 2 & 3 & 4 &

G |-----------------|-----------------|-----------------|-----------------|
D |-----------------|-------------2---|-4-----4--2------|-----------------|
A |-----------------|---------4-------|-------------4---|-5-------5--4--5-|
E |-0---2---4---5---|-----5-----------|-----------------|-----------------|
  1 & 2 & 3 & 4 &  1 & 2 & 3 & 4 &  1 & 2 & 3 & 4 &  1 & 2 & 3 & 4 &

G |-----------------|
D |-----------------|
A |-7-------7--5----|
E |---------------7-|
  1 & 2 & 3 & 4 &

I LIE AWAKE....
G |-----------------|-----------------|-----------------|-----------------|
D |-------------4-7-|-----------------|-----------------|-----------------|
A |-5-------4-5-----|-5---4-----------|------------4--7-|-------------4---|
E |-----------------|---------7---6---|-5-------5-------|-5---5---7-------|
  1 & 2 & 3 & 4 &  1 & 2 & 3 & 4 &  1 & 2 & 3 & 4 &  1 & 2 & 3 & 4 &

G |-----------------|-----------------|-----------------|-----------------|
D |------------4-7--|-----------------|-----------------|-----------------|
A |-5-------4-5-----|-5---4---5---6---|---------7-------|-7---------------|
E |-----------------|-----------------|-----------------|-----------------|
  1 & 2 & 3 & 4 &  1 & 2 & 3 & 4 &  1 & 2 & 3 & 4 &  1 & 2 & 3 & 4 &


IM LOOSING SLEEP
G |-----------------|-----------------|-----------------|-----------------|
D |-----------------|---------------2-|-4-----4--2------|---------------2-|
A |-----------------|-------------4---|-------------4---|-5-------5-4-5---|
E |-0---2---4---5---|---------4-5-----|-----------------|-----------------|
  1 & 2 & 3 & 4 &  1 & 2 & 3 & 4 &  1 & 2 & 3 & 4 &  1 & 2 & 3 & 4 &

G |-----------------|-----------------|-----------------|-----------------|
D |-----------------|---------------2-|-4-------2-4-2---|-----------------|
A |-----------------|-------------4---|---------------4-|-5-------4-5-4-5-|
E |-0---2---4---5---|---------4-5-----|-----------------|-----------------|
  1 & 2 & 3 & 4 &  1 & 2 & 3 & 4 &  1 & 2 & 3 & 4 &  1 & 2 & 3 & 4 &

G |-----------------|
D |-----------------|
A |-7-------7--5----|
E |---------------7-|
  1 & 2 & 3 & 4 &


I LIE AWAKE....
G |-----------------|-----------------|-----------------|-----------------|
D |-------------4-7-|-----------------|-----------------|-----------------|
A |-5-------4-5-----|-5---4-----------|------------4--7-|-------------4---|
E |-----------------|---------7---6---|-5-------5-------|-5---5---7-------|
  1 & 2 & 3 & 4 &  1 & 2 & 3 & 4 &  1 & 2 & 3 & 4 &  1 & 2 & 3 & 4 &

G |-----------------|-----------------|-----------------|-----------------|
D |------------4-7--|-----------------|-----------------|-----------------|
A |-5-------4-5-----|-5---4---5---6---|-777-777-777-777-|-777-777-7-------|
E |-----------------|-----------------|-----------------|-----------------|
  1 & 2 & 3 & 4 &  1 & 2 & 3 & 4 &  1 & 2 & 3 & 4 &  1 & 2 & 3 & 4 &

G |-----------------|-----------------|-----------------|-----------------|
D |-----------------|---------------2-|-4-------2-4-2---|-----------------|
A |-----------------|-------------4---|---------------4-|-5-------4-5-4-5-|
E |-0---2---4---5---|---------4-5-----|-----------------|-----------------|
  1 & 2 & 3 & 4 &  1 & 2 & 3 & 4 &  1 & 2 & 3 & 4 &  1 & 2 & 3 & 4 &

G |-----------------|-----------------|-----------------|-7---5---4-------|
D |---------4---7---|---------4---7---|---------4---7---|-------------7---|
A |-5---4-----------|-5---4-----------|-5---4-----------|-----------------|
E |-----------------|-----------------|-----------------|-----------------|
  1 & 2 & 3 & 4 &  1 & 2 & 3 & 4 &  1 & 2 & 3 & 4 &  1 & 2 & 3 & 4 &

G |-----------------|-----------------|-----------------|-----------------|
D |-----------------|-----------------|-----------------|-7---5---4-------|
A |-----------4---7-|-----------4---7-|-----------4---7-|-------------7---|
E |-5-------5-------|-5-------5-------|-5-------5-------|-----------------|
  1 & 2 & 3 & 4 &  1 & 2 & 3 & 4 &  1 & 2 & 3 & 4 &  1 & 2 & 3 & 4 &

G |-----------------|-----------------|-----------------|-----------------|
D |-----------4---7-|-----------4---7-|-----------4---7-|-----------------|
A |-5-------5-------|-5-------5-------|-5-------5-------|-5---4-----------|
E |-----------------|-----------------|-----------------|---------7---5---|
  1 & 2 & 3 & 4 &  1 & 2 & 3 & 4 &  1 & 2 & 3 & 4 &  1 & 2 & 3 & 4 &

G |-----------------|-----------------|-------------4---|-----------------|
D |-------------4---|-------------4---|-----------------|-----------------|
A |-----------------|-----------------|-7---6---7-------|-7---5---4-------|
E |-7---6---7-------|-7---6---7-------|-----------------|-------------7---|
  1 & 2 & 3 & 4 &  1 & 2 & 3 & 4 &  1 & 2 & 3 & 4 &  1 & 2 & 3 & 4 &


VERSE
G |-----------------|-----------------|-----------------|-----------------|
D |-----------------|-------------2---|-4-----4--2------|---------------2-|
A |-----------------|---------4-------|-------------4---|-5-------5-4-5---|
E |-0---2---4---5---|-----5-----------|-----------------|-----------------|
  1 & 2 & 3 & 4 &  1 & 2 & 3 & 4 &  1 & 2 & 3 & 4 &  1 & 2 & 3 & 4 &

G |-----------------|-----------------|-----------------|-----------------|
D |-----------------|-------------2---|-4-----4--2------|-----------------|
A |-----------------|---------4-------|-------------4---|-5-------5--4--5-|
E |-0---2---4---5---|-----5-----------|-----------------|-----------------|
  1 & 2 & 3 & 4 &  1 & 2 & 3 & 4 &  1 & 2 & 3 & 4 &  1 & 2 & 3 & 4 &

G |-----------------|
D |-----------------|
A |-7-------7--5----|
E |---------------7-|
  1 & 2 & 3 & 4 &


I LIE AWAKE....
G |-----------------|-----------------|-----------------|-----------------|
D |-------------4-7-|-----------------|-----------------|-----------------|
A |-5-------4-5-----|-5---4-----------|------------4--7-|-------------4---|
E |-----------------|---------7---6---|-5-------5-------|-5---5---7-------|
  1 & 2 & 3 & 4 &  1 & 2 & 3 & 4 &  1 & 2 & 3 & 4 &  1 & 2 & 3 & 4 &

G |-----------------|-----------------|-----------------|-----------------|
D |------------4-7--|-----------------|-----------------|-----------------|
A |-5-------4-5-----|-5---4---5---6---|---------7-------|-7---------------|
E |-----------------|-----------------|-----------------|-----------------|
  1 & 2 & 3 & 4 &  1 & 2 & 3 & 4 &  1 & 2 & 3 & 4 &  1 & 2 & 3 & 4 &


ENDING
G |-----------------|-----------------|-----------------|-----------------|
D |-----------------|---------------2-|-4-----4--2------|-----------------|
A |-----------------|-------------4---|-------------4---|-5---5---7---7---|
E |-0---2---4---5---|---------4-5-----|-----------------|-----------------|
  1 & 2 & 3 & 4 &  1 & 2 & 3 & 4 &  1 & 2 & 3 & 4 &  1 & 2 & 3 & 4 &

G-|-----------------|-----------------|-----------------|
D-|---------------2-|-4-----4--2------|-----------------|
A-|-------------4---|-------------4---|-5---5---7---7---|
E-|-5-------4-5-----|-----------------|-----------------|
  1 & 2 & 3 & 4 &  1 & 2 & 3 & 4 &  1 & 2 & 3 & 4 &
REPEAT AND FADE

Almost there ...

Sign in to get your own page with links to favourite songs and more. You are just one click away...

Login with Facebook Login with Google