Log in

One click and you are in

Login with Facebook Login with Google

Why sign up and log in

Guitar Tabs Explorer
Mud bass tabs for The cat crept in

Bass tabs

The Cat Crept In
1974 Single by Glam Rock Band Mud


Intro:
G|----------|--------------------------------------------|
D|---DRUM---|--------------------------------------------|
A|-START X4-|-1h2---1h2---1h2---1h2---2--2--2---2--2--2--|
E|----------|--------------------------------2---------2-|

G|--------------------|
D|--------------------|
A|-2--2--2---2--------|
E|--------2---2--2--2-|
Verse 1:                  (Play This Bit x2)
G|-------------------------------------------------|
D|-------------------------------------------------|
A|-2--2--2--x--2--2--2--x---2--2--2--x--2--2--2--x-|
E|-------------------------------------------------|

G|-----------------------------------------------------------------------|
D|------------------------2--2--2--x--2--2--2--x-------------------------|
A|-4--4--4--x--4--4--4--x------------------------2--2--2--x---5--5--5--x-|
E|-----------------------------------------------------------------------|

G|-----------------------|
D|-----------------------|
A|-2--2--2--2--2---------|
E|---------------2--2--2-|


Verse 2:                  (Play This Bit x2)
G|-------------------------------------------------|
D|-------------------------------------------------|
A|-2--2--2--2--2--2--2--2---2--2--2--2--2--2--2--2-|
E|-------------------------------------------------|

G|-----------------------------------------------------------------------|
D|------------------------2--2--2--2--2--2--2--2-------------------------|
A|-4--4--4--4--4--4--4--4------------------------2--2--2--2---5--5--5--5-|
E|-----------------------------------------------------------------------|

G|---------------------|
D|---------------2-3-4-|
A|-2--2--2--2--2-------|
E|---------------------|

Chorus 1:
G|-------3-4-1-----------3-4-1--------1-4-1----1-4-1-------------------|
D|---1-4------4-1----1-4------4-1---2--------2----------1-4-1----1-4-1-|
A|-2---------------2----------------------------------2--------2-------|
E|---------------------------------------------------------------------|

G|---------------------------------------------------------------|
D|-4--4--4--4---5---4-------------------------4--4--4--4---5---4-|
A|--------------------2--2--2--2--2--2--2--2---------------------|
E|---------------------------------------------------------------|

G|---------------------|
D|---------------2-3-4-|
A|-2--2--2--2--2-------|
E|---------------------|


Verse 3:                  (Play This Bit x2)
G|-------------------------------------------------|
D|-------------------------------------------------|
A|-2--2--2--2--2--2--2--2---2--2--2--2--2--2--2--2-|
E|-------------------------------------------------|

G|-----------------------------------------------------------------------|
D|------------------------2--2--2--2--2--2--2--2-------------------------|
A|-4--4--4--4--4--4--4--4------------------------2--2--2--2---5--5--5--5-|
E|-----------------------------------------------------------------------|

G|---------------------|
D|---------------2-3-4-|
A|-2--2--2--2--2-------|
E|---------------------|


Chorus 1:
G|-------3-4-1-----------3-4-1--------1-4-1----1-4-1-------------------|
D|---1-4------4-1----1-4------4-1---2--------2----------1-4-1----1-4-1-|
A|-2---------------2----------------------------------2--------2-------|
E|---------------------------------------------------------------------|

G|---------------------------------------------------------------|
D|-4--4--4--4---5---4-------------------------4--4--4--4---5---4-|
A|--------------------2--2--2--2--2--2--2--2---------------------|
E|---------------------------------------------------------------|

G|---------------------|
D|---------------2-3-4-|
A|-2--2--2--2--2-------|
E|---------------------|


Instrumental:
    .     .     .
G|-----------------------------------------------------------------|
D|---------------------------------------------------6-9-6---6-9-6-|
A|-2-2-22-----2-2-22-----2-2-22-----3--4--5--6--6--7-------7-------|
E|-----------------------------------------------------------------|

G|-----------------------------------------------------------|
D|-------------------8-11-8----------------------------------|
A|--6-9-6----6-7-8-9--------10--10--9--9--------------7-8-9--|
E|-7-------7-----------------------------7--7--7--7--7-------|

G|------------------------------------------------------------------------|
D|------------------------------------------------------------------------|
A|-------------------------------------------------7--7--7--7--7--7--7--7-|
E|-7--7--7--7--7--7--7--7---7--7--7--7--7--7--7--7------------------------|

                        (Break)
G|------------------------------------------------|
D|------------------------------------------------|
A|------------------------9--9--9--9---10---9-----|
E|-7--7--7--7--7--7--7--7-----------------------7-|


Verse 4:
G|-------------------------------------------|
D|---Vocals Only On First Section of Verse---|
A|-------------------------------------------|
E|---- --------------------------------------|

G|-----------------------------------------------------------------------|
D|------------------------2--2--2--2--2--2--2--2-------------------------|
A|-4--4--4--4--4--4--4--4------------------------2--2--2--2---5--5--5--5-|
E|-----------------------------------------------------------------------|

G|---------------------|
D|---------------2-3-4-|
A|-2--2--2--2--2-------|
E|---------------------|


Chorus 2:
G|-------3-4-1-----------3-4-1--------1-4-1----1-4-1--------1----------|
D|---1-4------4-1----1-4------4-1---2--------2----------1-4------1-2-3-|
A|-2---------------2----------------------------------2--------2-------|
E|---------------------------------------------------------------------|

G|----------------------------------------------------------------|
D|-4--4--4--4---5---4--------------------------4--4--4--4---5---4-|
A|----------------------2--2--2--2--2--2--2--2--------------------|
E|----------------------------------------------------------------|

G|------------------------------------------------------------------|
D|------------------------4--4--4--4---5---4------------------------|
A|-2--2--2--2--2--2--2--2--------------------2--2--2--2--2--2--2--2-|
E|------------------------------------------------------------------|

                    (Break)
G|------------------------------------4----|
D|-4--4--4--4---5---4----4-2-1----1-4------|
A|---------------------2------4--2-------2-|
E|-----------------------------------------|


Outro:
G|------------------------------------------------------------------------|
D|------------------------------------------------------------------------|
A|-------------------------------------------------7--7--7--7--7--7--7--7-|
E|-7--7--7--7--7--7--7--7---7--7--7--7--7--7--7--7------------------------|

                              (Song Fade Out)
G|---------------------------------------------------------------|
D|---------------------------------------------------------------|
A|------------------------9--9--9--9---10---9--------------7-8-9-|
E|-7--7--7--7--7--7--7--7---------------------7--7--7--7--7------|

Almost there ...

Sign in to get your own page with links to favourite songs and more. You are just one click away...

Login with Facebook Login with Google