Log in

One click and you are in

Login with Facebook Login with Google

Why sign up and log in

Guitar Tabs Explorer
Mud tabs for Dynamite

Guitar tabs with lyrics

DYNAMITE

As recorded by Mud
(From the 1974 Album GREATEST HITS)

Words and Music by Nicky Chinn & Mike Chapman

Transcribed by Slowhand
Gtr I (E A D G B E) - 'Rob Davis - Electric Guitar 1'
Gtr II (E A D G B E) - 'Rob Davis - Electric Guitar 2'
Gtr III (E A D G B E) - 'Rob Davis - Electric Guitar 3'


 Intro
  Q=144
            A chord diagramBB
 4/4
  Gtr I
  H    Q  A chord diagramE MajorE A chord diagramE MajorE   +Q    A chord diagramE MajorE A chord diagramE MajorE  Q   A chord diagramE MajorE A chord diagramE MajorE   +Q    A chord diagramE MajorE A chord diagramE MajorE  Q   A chord diagramE MajorE A chord diagramE MajorE   +Q    A chord diagramE MajorE A chord diagramE MajorE  Q   A chord diagramE MajorE A chord diagramE MajorE
|-------------|--------------------|--------------------|---------------------|
|-------------|--------------------|--------------------|---------------------|
|-----------8-|-(8)--------------8-|-(8)--------------8-|-(8)--------------8--|
|-----------9-|-(9)---9----9---9-9-|-(9)---9----9-----9-|-(9)---9----9---9-9--|
|-----------9-|-(9)--11---12--11-9-|-(9)--11---12--11-9-|-(9)--11---12--11-9--|
|-----------7-|-(7)---7----7---7-7-|-(7)---7----7---7-7-|-(7)---7----7---7-7--|


  +Q    A chord diagramE MajorE A chord diagramE MajorE  Q   A chord diagramE MajorE A chord diagramE MajorE   +Q    A chord diagramE MajorE A chord diagramE MajorE  Q   A chord diagramE MajorE A chord diagramE MajorE
|--------------------|--------------------|
|--------------------|--------------------|
|-(8)--------------8-|-(8)--------------8-|
|-(9)---9----9---9-9-|-(9)---9----9---9-9-|
|-(9)--11---12--11-9-|-(9)--11---12--11-9-|
|-(7)---7----7---7-7-|-(7)---7----7---7-7-|

  +Q    A chord diagramE MajorE A chord diagramE MajorE  Q   A chord diagramE MajorE A chord diagramE MajorE   +A chord diagramE MajorE  A chord diagramE MajorE  A chord diagramE MajorE A chord diagramE MajorE  A chord diagramE MajorE A chord diagramE MajorE  A chord diagramE MajorE A chord diagramE MajorE
|--------------------|-----------------------|
|--------------------|-----------------------|
|-(8)--------------8-|-(8)-8--------------8--|
|-(9)---9----9---9-9-|-(9)-9--9----9----9-9--|
|-(9)--11---12--11-9-|-(9)-9-11-9-12-9-11-9--|
|-(7)---7----7---7-7-|-(7)-7--7-7--7-7--7-7--|


                        1st & 2nd Verses
                         A chord diagramC5C5
  +A chord diagramE MajorE  A chord diagramE MajorE  A chord diagramE MajorE A chord diagramE MajorE A chord diagramE MajorE A chord diagramE MajorE A chord diagramE MajorE A chord diagramE MajorE      A chord diagramE MajorE  A chord diagramE MajorE  A chord diagramE MajorE  A chord diagramE MajorE  A chord diagramE MajorE  A chord diagramE MajorE  A chord diagramE MajorE  A chord diagramE MajorE
|--------------------||--------------------------|
|--------------------||o-------------------------|
|-(8)-8------8---8---||--------------------------|
|-(9)-9--9---9---9---||--------------------------|
|-(9)-9-11-9-9---9---||o-10-10-12-10-10-10-12-10-|
|-(7)-7--7-7-7---7---||---8--8--8--8--8--8--8--8-|
|
| Gtr II
|  W                      A chord diagramE MajorE  A chord diagramE MajorE  Q     A chord diagramE MajorE  A chord diagramE MajorE  Q
|--------------------||------8--------8--8-------|
|--------------------||o-----8--------8--8-------|
|--------------------||------9--------9--9-------|
|--------------------||--------------------------|
|--------------------||o-------------------------|
|--------------------||--------------------------|


  A chord diagramB5B5                  A chord diagramC5C5
  A chord diagramE MajorE A chord diagramE MajorE  A chord diagramE MajorE A chord diagramE MajorE A chord diagramE MajorE A chord diagramE MajorE  A chord diagramE MajorE A chord diagramE MajorE    A chord diagramE MajorE  A chord diagramE MajorE  A chord diagramE MajorE  A chord diagramE MajorE  A chord diagramE MajorE  A chord diagramE MajorE  A chord diagramE MajorE  A chord diagramE MajorE
|-------------------|--------------------------|
|-------------------|--------------------------|
|-------------------|--------------------------|
|-------------------|--------------------------|
|-9-9-11-9-9-9-11-9-|-10-10-12-10-10-10-12-10--|
|-7-7--7-7-7-7--7-7-|--8--8--8--8--8--8--8--8--|
|
| A chord diagramE MajorE A chord diagramE MajorE  Q   A chord diagramE MajorE A chord diagramE MajorE  Q      A chord diagramE MajorE  A chord diagramE MajorE  Q     A chord diagramE MajorE  A chord diagramE MajorE  Q
|---7------7-7------|-----8--------8--8--------|
|---7------7-7------|-----8--------8--8--------|
|---8------8-8------|-----9--------9--9--------|
|-------------------|--------------------------|
|-------------------|--------------------------|
|-------------------|--------------------------|


  A chord diagramB5B5                  A chord diagramC5C5
  A chord diagramE MajorE A chord diagramE MajorE  A chord diagramE MajorE A chord diagramE MajorE A chord diagramE MajorE A chord diagramE MajorE  A chord diagramE MajorE A chord diagramE MajorE    A chord diagramE MajorE  A chord diagramE MajorE  A chord diagramE MajorE  A chord diagramE MajorE  A chord diagramE MajorE  A chord diagramE MajorE  A chord diagramE MajorE  A chord diagramE MajorE
|-------------------|-------------------------|
|-------------------|-------------------------|
|-------------------|-------------------------|
|-------------------|-------------------------|
|-9-9-11-9-9-9-11-9-|-10-10-12-10-10-10-12-10-|
|-7-7--7-7-7-7--7-7-|--8--8--8--8--8--8--8--8-|
|
| A chord diagramE MajorE A chord diagramE MajorE  Q   A chord diagramE MajorE A chord diagramE MajorE  Q      A chord diagramE MajorE  A chord diagramE MajorE  Q     A chord diagramE MajorE  A chord diagramE MajorE  Q
|---7------7-7------|-----8--------8--8-------|
|---7------7-7------|-----8--------8--8-------|
|---8------8-8------|-----9--------9--9-------|
|-------------------|-------------------------|
|-------------------|-------------------------|
|-------------------|-------------------------|


  A chord diagramB5B5                  A chord diagramC5C5
  A chord diagramE MajorE A chord diagramE MajorE  A chord diagramE MajorE A chord diagramE MajorE A chord diagramE MajorE A chord diagramE MajorE  A chord diagramE MajorE A chord diagramE MajorE    A chord diagramE MajorE  A chord diagramE MajorE  A chord diagramE MajorE  A chord diagramE MajorE  A chord diagramE MajorE  A chord diagramE MajorE  A chord diagramE MajorE  A chord diagramE MajorE
|-------------------|--------------------------|
|-------------------|--------------------------|
|-------------------|--------------------------|
|-------------------|--------------------------|
|-9-9-11-9-9-9-11-9-|-10-10-12-10-10-10-12-10--|
|-7-7--7-7-7-7--7-7-|--8--8--8--8--8--8--8--8--|
|
| A chord diagramE MajorE A chord diagramE MajorE  Q   A chord diagramE MajorE A chord diagramE MajorE  Q      A chord diagramE MajorE  A chord diagramE MajorE  Q     A chord diagramE MajorE  A chord diagramE MajorE  Q
|---7------7-7------|-----8--------8--8--------|
|---7------7-7------|-----8--------8--8--------|
|---8------8-8------|-----9--------9--9--------|
|-------------------|--------------------------|
|-------------------|--------------------------|
|-------------------|--------------------------|


  A chord diagramB5B5                  A chord diagramC5C5
  A chord diagramE MajorE A chord diagramE MajorE  A chord diagramE MajorE A chord diagramE MajorE A chord diagramE MajorE A chord diagramE MajorE  A chord diagramE MajorE A chord diagramE MajorE    A chord diagramE MajorE  A chord diagramE MajorE  A chord diagramE MajorE  A chord diagramE MajorE  A chord diagramE MajorE  A chord diagramE MajorE  A chord diagramE MajorE  A chord diagramE MajorE
|-------------------|-------------------------|
|-------------------|-------------------------|
|-------------------|-------------------------|
|-------------------|-------------------------|
|-9-9-11-9-9-9-11-9-|-10-10-12-10-10-10-12-10-|
|-7-7--7-7-7-7--7-7-|--8--8--8--8--8--8--8--8-|
|
| A chord diagramE MajorE A chord diagramE MajorE  Q   A chord diagramE MajorE A chord diagramE MajorE  Q      A chord diagramE MajorE  A chord diagramE MajorE  Q     A chord diagramE MajorE  A chord diagramE MajorE  Q
|---7------7-7------|-----8--------8--8-------|
|---7------7-7------|-----8--------8--8-------|
|---8------8-8------|-----9--------9--9-------|
|-------------------|-------------------------|
|-------------------|-------------------------|
|-------------------|-------------------------|


  A chord diagramB5B5
  A chord diagramE MajorE A chord diagramE MajorE  A chord diagramE MajorE A chord diagramE MajorE A chord diagramE MajorE A chord diagramE MajorE  A chord diagramE MajorE A chord diagramE MajorE   A chord diagramE MajorE A chord diagramE MajorE  A chord diagramE MajorE A chord diagramE MajorE A chord diagramE MajorE A chord diagramE MajorE  A chord diagramE MajorE A chord diagramE MajorE
|-------------------|--------------------|
|-------------------|--------------------|
|-------------------|--------------------|
|-------------------|--------------------|
|-9-9-11-9-9-9-11-9-|-9-9-11-9-9-9-11-9--|
|-7-7--7-7-7-7--7-7-|-7-7--7-7-7-7--7-7--|
|
| A chord diagramE MajorE A chord diagramE MajorE  Q   A chord diagramE MajorE A chord diagramE MajorE  Q     A chord diagramE MajorE A chord diagramE MajorE  Q   A chord diagramE MajorE A chord diagramE MajorE  Q
|---7------7-7------|---7------7-7-------|
|---7------7-7------|---7------7-7-------|
|---8------8-8------|---8------8-8-------|
|-------------------|--------------------|
|-------------------|--------------------|
|-------------------|--------------------|


  A chord diagramE MajorE A chord diagramE MajorE  A chord diagramE MajorE A chord diagramE MajorE A chord diagramE MajorE A chord diagramE MajorE  A chord diagramE MajorE A chord diagramE MajorE   A chord diagramE MajorE A chord diagramE MajorE  A chord diagramE MajorE A chord diagramE MajorE A chord diagramE MajorE A chord diagramE MajorE  A chord diagramE MajorE A chord diagramE MajorE
|-------------------|-------------------||
|-------------------|-------------------||
|-------------------|-------------------||
|-------------------|-------------------||
|-9-9-11-9-9-9-11-9-|-9-9-11-9-9-9-11-9-||
|-7-7--7-7-7-7--7-7-|-7-7--7-7-7-7--7-7-||
|
| A chord diagramE MajorE A chord diagramE MajorE  Q   A chord diagramE MajorE A chord diagramE MajorE  Q     A chord diagramE MajorE A chord diagramE MajorE  Q   A chord diagramE MajorE A chord diagramE MajorE  Q
|---7------7-7------|---7------7-7------||
|---7------7-7------|---7------7-7------||
|---8------8-8------|---8------8-8------||
|-------------------|-------------------||
|-------------------|-------------------||
|-------------------|-------------------||


 Chorus
  A chord diagramE5E5                  A chord diagramB5B5
  A chord diagramE MajorE A chord diagramE MajorE A chord diagramE MajorE A chord diagramE MajorE +A chord diagramE MajorE  A chord diagramE MajorE A chord diagramE MajorE A chord diagramE MajorE   A chord diagramE MajorE A chord diagramE MajorE A chord diagramE MajorE A chord diagramE MajorE +A chord diagramE MajorE  A chord diagramE MajorE A chord diagramE MajorE A chord diagramE MajorE
|-------------------|--------------------|
|-------------------|--------------------|
|-------------------|--------------------|
|-9-9-9-9-(9)-9-9-9-|--------------------|
|-7-7-7-7-(7)-7-7-7-|-9-9-9-9-(9)-9-9-9--|
|-------------------|-7-7-7-7-(7)-7-7-7--|
|
| W                   W
|-------------------|--------------------|
|-9-----------------|--------------------|
|-9-----------------|-8------------------|
|-9-----------------|-9------------------|
|-7-----------------|-9------------------|
|-------------------|-7------------------|


  A chord diagramE5E5                  A chord diagramB5B5
  A chord diagramE MajorE A chord diagramE MajorE A chord diagramE MajorE A chord diagramE MajorE +A chord diagramE MajorE  A chord diagramE MajorE A chord diagramE MajorE A chord diagramE MajorE   A chord diagramE MajorE A chord diagramE MajorE A chord diagramE MajorE A chord diagramE MajorE +A chord diagramE MajorE  A chord diagramE MajorE A chord diagramE MajorE A chord diagramE MajorE
|-------------------|-------------------|
|-------------------|-------------------|
|-------------------|-------------------|
|-9-9-9-9-(9)-9-9-9-|-------------------|
|-7-7-7-7-(7)-7-7-7-|-9-9-9-9-(9)-9-9-9-|
|-------------------|-7-7-7-7-(7)-7-7-7-|
|
| W                   W
|-------------------|-------------------|
|-9-----------------|-------------------|
|-9-----------------|-8-----------------|
|-9-----------------|-9-----------------|
|-7-----------------|-9-----------------|
|-------------------|-7-----------------|


  A chord diagramE5E5     A chord diagramD5D5            A chord diagramC#5C#5     A chord diagramC5C5
  A chord diagramE MajorE  A chord diagramE MajorE A chord diagramE MajorE A chord diagramE MajorE +A chord diagramE MajorE  A chord diagramE MajorE A chord diagramE MajorE A chord diagramE MajorE    A chord diagramE MajorE  A chord diagramE MajorE A chord diagramE MajorE  A chord diagramE MajorE  +A chord diagramE MajorE  A chord diagramE MajorE A chord diagramE MajorE A chord diagramE MajorE
|--------------------|------------------------|
|--------------------|------------------------|
|--------------------|------------------------|
|-9--9-9-7-(7)-7-7-7-|--6--6-6--5--(5)-5-5-5--|
|-7--7-7-5-(5)-5-5-5-|--4--4-4--3--(3)-3-3-3--|
|--------------------|------------------------|
|
| Q.     A chord diagramE MajorE +H           Q.      A chord diagramE MajorE  +H
|--------------------|------------------------|
|-9------7-(7)-------|------------------------|
|-9------7-(7)-------|-10-------9--(9)--------|
|-9------7-(7)-------|-11------10-(10)--------|
|-7------5-(5)-------|-11------10-(10)--------|
|--------------------|--9-------8--(8)--------|


  A chord diagramB5B5
  A chord diagramE MajorE A chord diagramE MajorE  A chord diagramE MajorE A chord diagramE MajorE  A chord diagramE MajorE  A chord diagramE MajorE  A chord diagramE MajorE A chord diagramE MajorE     +A chord diagramE MajorE  A chord diagramE MajorE  A chord diagramE MajorE A chord diagramE MajorE  A chord diagramE MajorE A chord diagramE MajorE  A chord diagramE MajorE A chord diagramE MajorE
|-----------------------|----------------------|
|-----------------------|----------------------|
|-----------------------|----------------------|
|-9----9----9-----9-9---|-(9)----9----9----9---|
|-9---11---12----11-9---|-(9)-9-11---12---11-9-|
|-7-7--7-7--7--7--7-7---|-(7)-7--7-7--7-7--7-7-|
|
| H        +Q.      S S    W
|-7--------(7)--------7-|--7-------------------|
|-7--------(7)------7-7-|--7-------------------|
|-8--------(8)------8-8-|--8-------------------|
|-9--------(9)------9-9-|--9-------------------|
|-9--------(9)------9-9-|--9-------------------|
|-7--------(7)------7-7-|--7-------------------|


  A chord diagramE5E5                  A chord diagramB5B5
  A chord diagramE MajorE A chord diagramE MajorE A chord diagramE MajorE A chord diagramE MajorE +A chord diagramE MajorE  A chord diagramE MajorE A chord diagramE MajorE A chord diagramE MajorE   A chord diagramE MajorE A chord diagramE MajorE A chord diagramE MajorE A chord diagramE MajorE +A chord diagramE MajorE  A chord diagramE MajorE A chord diagramE MajorE A chord diagramE MajorE
|-------------------|-------------------|
|-------------------|-------------------|
|-------------------|-------------------|
|-9-9-9-9-(9)-9-9-9-|-------------------|
|-7-7-7-7-(7)-7-7-7-|-9-9-9-9-(9)-9-9-9-|
|-------------------|-7-7-7-7-(7)-7-7-7-|
|
| W                   W
|-------------------|-------------------|
|-9-----------------|-------------------|
|-9-----------------|-8-----------------|
|-9-----------------|-9-----------------|
|-7-----------------|-9-----------------|
|-------------------|-7-----------------|


  A chord diagramE5E5                  A chord diagramB5B5
  A chord diagramE MajorE A chord diagramE MajorE A chord diagramE MajorE A chord diagramE MajorE +A chord diagramE MajorE  A chord diagramE MajorE A chord diagramE MajorE A chord diagramE MajorE   A chord diagramE MajorE A chord diagramE MajorE A chord diagramE MajorE A chord diagramE MajorE +A chord diagramE MajorE  A chord diagramE MajorE A chord diagramE MajorE A chord diagramE MajorE
|-------------------|-------------------|
|-------------------|-------------------|
|-------------------|-------------------|
|-9-9-9-9-(9)-9-9-9-|-------------------|
|-7-7-7-7-(7)-7-7-7-|-9-9-9-9-(9)-9-9-9-|
|-------------------|-7-7-7-7-(7)-7-7-7-|
|
| W                   W
|-------------------|-------------------|
|-9-----------------|-------------------|
|-9-----------------|-8-----------------|
|-9-----------------|-9-----------------|
|-7-----------------|-9-----------------|
|-------------------|-7-----------------|


  A chord diagramE5E5     A chord diagramD5D5            A chord diagramC#5C#5     A chord diagramC5C5
  A chord diagramE MajorE  A chord diagramE MajorE A chord diagramE MajorE A chord diagramE MajorE +A chord diagramE MajorE  A chord diagramE MajorE A chord diagramE MajorE A chord diagramE MajorE    A chord diagramE MajorE  A chord diagramE MajorE A chord diagramE MajorE  A chord diagramE MajorE  +A chord diagramE MajorE  A chord diagramE MajorE A chord diagramE MajorE A chord diagramE MajorE
|--------------------|------------------------|
|--------------------|------------------------|
|--------------------|------------------------|
|-9--9-9-7-(7)-7-7-7-|--6--6-6--5--(5)-5-5-5--|
|-7--7-7-5-(5)-5-5-5-|--4--4-4--3--(3)-3-3-3--|
|--------------------|------------------------|
|
| Q.     A chord diagramE MajorE +H           Q.      A chord diagramE MajorE  +H
|--------------------|------------------------|
|-9------7-(7)-------|------------------------|
|-9------7-(7)-------|-10-------9--(9)--------|
|-9------7-(7)-------|-11------10-(10)--------|
|-7------5-(5)-------|-11------10-(10)--------|
|--------------------|--9-------8--(8)--------|


                                Interlude
  A chord diagramBB                        A chord diagramD#D#                      A chord diagramE MajorE
  W           H      Q   A chord diagramE MajorE  A chord diagramE MajorE     H            Q   Q
|----------|------------------||------------------------|
|----------|----------------8-||-------------------9----|
|----------|----------------8-||-------------------9----|
|----------|----------------8-||-------------------9----|
|----------|----------------6-||-------------------7----|
|----------|------------------||------------------------|
|
| W           H      Q   A chord diagramE MajorE  A chord diagramE MajorE     A chord diagramE MajorE  A chord diagramE MajorE  A chord diagramE MajorE  A chord diagramE MajorE  +Q   A chord diagramE MajorE  A chord diagramE MajorE
|----------|------------------||------------------------|
|----------|------------------||------------------------|
|----------|------------------||-----------9--(9)-------|
|----------|------------------||-----9-11--9--(9)-------|
|----------|---------------10-||-11------------------10-|
|----------|------------------||------------------------|
|
| Gtr III
| W          +H     +Q.     A chord diagramE MajorE     A chord diagramE MajorE  A chord diagramE MajorE  A chord diagramE MajorE  A chord diagramE MajorE  +Q   A chord diagramE MajorE  A chord diagramE MajorE
|-7--------|-(7)----(7)-------||--------9-12-(12)-------|
|-7--------|-(7)----(7)-----8-||--9-12--9-12-(12)-----8-|
|-8--------|-(8)----(8)-----8-||--9-11----------------8-|
|-9--------|-(9)----(9)-------||------------------------|
|-9--------|-(9)----(9)-------||------------------------|
|-7--------|-(7)----(7)-------||------------------------|


   H            Q   Q       Q     Q      Q      Q
|------------------------|---------------------------|
|-------------------9----|--------9-------------9----|
|-------------------9----|--------9-------------9----|
|-------------------9----|--------9-------------9----|
|-------------------7----|--------7-------------7----|
|------------------------|---------------------------|
|
|  A chord diagramE MajorE  A chord diagramE MajorE  A chord diagramE MajorE  A chord diagramE MajorE  +Q   A chord diagramE MajorE  A chord diagramE MajorE    A chord diagramE MajorE  A chord diagramE MajorE  A chord diagramE MajorE  A chord diagramE MajorE  +A chord diagramE MajorE   A chord diagramE MajorE  A chord diagramE MajorE  A chord diagramE MajorE
|------------------------|---------------------------|
|------------------------|---------------------------|
|-----------9--(9)-------|-----------9--(9)--------9-|
|-----9-11--9--(9)-------|-----9-11--9--(9)--9-11--9-|
|-11------------------10-|-11------------------------|
|------------------------|---------------------------|
|
|  A chord diagramE MajorE  A chord diagramE MajorE  A chord diagramE MajorE  A chord diagramE MajorE  +Q   A chord diagramE MajorE  A chord diagramE MajorE    A chord diagramE MajorE  A chord diagramE MajorE  A chord diagramE MajorE  A chord diagramE MajorE  +A chord diagramE MajorE   A chord diagramE MajorE  A chord diagramE MajorE  A chord diagramE MajorE
|--------9-12-(12)-------|--------9-12-(12)-----9-12-|
|--9-12--9-12-(12)-----8-|--9-12--9-12-(12)-12--9-12-|
|--9-11----------------8-|--9-11------------11-------|
|------------------------|---------------------------|
|------------------------|---------------------------|
|------------------------|---------------------------|


    Q      Q      Q      A chord diagramE MajorE  A chord diagramE MajorE
|-----------------------------|
|---9------9------9------9--9-|
|---9------9------9------9--9-|
|---9------9------9------9--9-|
|---7------7------7------7--7-|
|-----------------------------|
|
|  +A chord diagramE MajorE   A chord diagramE MajorE  A chord diagramE MajorE  A chord diagramE MajorE  +A chord diagramE MajorE   A chord diagramE MajorE  A chord diagramE MajorE  A chord diagramE MajorE
|-----------------------------|
|-----------------------------|
|--(9)--------9--(9)--------9-|
|--(9)--9-11--9--(9)--9-11--9-|
|-----------------------------|
|-----------------------------|
|
|  +A chord diagramE MajorE   A chord diagramE MajorE  A chord diagramE MajorE  A chord diagramE MajorE  +A chord diagramE MajorE   A chord diagramE MajorE  A chord diagramE MajorE  A chord diagramE MajorE
|-(12)-----9-12-(12)-----9-12-|
|-(12)-12--9-12-(12)-12--9-12-|
|------11------------11-------|
|-----------------------------|
|-----------------------------|
|-----------------------------|


  1.
  A chord diagramB5B5
    Q    A chord diagramE MajorE A chord diagramE MajorE  Q   A chord diagramE MajorE A chord diagramE MajorE   +Q    A chord diagramE MajorE A chord diagramE MajorE  A chord diagramE MajorE A chord diagramE MajorE  A chord diagramE MajorE A chord diagramE MajorE
|---------------------|---------------------|
|---------------------|---------------------|
|-------------------8-|-(8)---------------8-|
|---9----9----9---9-9-|-(9)---9----9----9-9-|
|---9---11---12--11-9-|-(9)--11---12---11-9-|
|---7----7----7---7-7-|-(7)---7----7----7-7-|
|
|  +W                    W
|---------------------|---------------------|
|---------------------|---------------------|
|--(9)----------------|---------------------|
|--(9)----------------|---------------------|
|---------------------|---------------------|
|---------------------|---------------------|
|
|  +W                    W
|-(12)----------------|---------------------|
|-(12)----------------|---------------------|
|---------------------|---------------------|
|---------------------|---------------------|
|---------------------|---------------------|
|---------------------|---------------------|


  +Q    A chord diagramE MajorE A chord diagramE MajorE  A chord diagramE MajorE A chord diagramE MajorE  A chord diagramE MajorE A chord diagramE MajorE   +Q    A chord diagramE MajorE A chord diagramE MajorE  A chord diagramE MajorE A chord diagramE MajorE  A chord diagramE MajorE A chord diagramE MajorE
|---------------------|----------------------|
|---------------------|----------------------|
|-(8)---------------8-|-(8)---------------8--|
|-(9)---9----9----9-9-|-(9)---9----9----9-9--|
|-(9)--11---12---11-9-|-(9)--11---12---11-9--|
|-(7)---7----7----7-7-|-(7)---7----7----7-7--|
|
|  W                     W
|---------------------|----------------------|
|---------------------|----------------------|
|---------------------|----------------------|
|---------------------|----------------------|
|---------------------|----------------------|
|---------------------|----------------------|
|
|  W                     W
|---------------------|----------------------|
|---------------------|----------------------|
|---------------------|----------------------|
|---------------------|----------------------|
|---------------------|----------------------|
|---------------------|----------------------|


  +A chord diagramE MajorE  A chord diagramE MajorE  A chord diagramE MajorE A chord diagramE MajorE  A chord diagramE MajorE A chord diagramE MajorE  A chord diagramE MajorE A chord diagramE MajorE   +A chord diagramE MajorE  A chord diagramE MajorE  A chord diagramE MajorE A chord diagramE MajorE  A chord diagramE MajorE A chord diagramE MajorE  A chord diagramE MajorE A chord diagramE MajorE
|----------------------|----------------------|
|----------------------|----------------------|
|-(8)-8--------------8-|-(8)-8--------------8-|
|-(9)-9--9----9----9-9-|-(9)-9--9----9----9-9-|
|-(9)-9-11---12---11-9-|-(9)-9-11---12---11-9-|
|-(7)-7--7-7--7-7--7-7-|-(7)-7--7-7--7-7--7-7-|


  +A chord diagramE MajorE  A chord diagramE MajorE  A chord diagramE MajorE A chord diagramE MajorE  A chord diagramE MajorE A chord diagramE MajorE  A chord diagramE MajorE A chord diagramE MajorE   +A chord diagramE MajorE  A chord diagramE MajorE  A chord diagramE MajorE A chord diagramE MajorE A chord diagramE MajorE A chord diagramE MajorE A chord diagramE MajorE A chord diagramE MajorE
|----------------------|----------------------||
|----------------------|---------------------o||
|-(8)-8--------------8-|-(8)-8------8---8-----||
|-(9)-9--9----9----9-9-|-(9)-9--9---9---9-----||
|-(9)-9-11---12---11-9-|-(9)-9-11-9-9---9----o||
|-(7)-7--7-7--7-7--7-7-|-(7)-7--7-7-7---7-----||


   Outro
    2.
    A chord diagramE5E5     A chord diagramD5D5            A chord diagramC#5C#5     A chord diagramC5C5
    Gtr I
    A chord diagramE MajorE  A chord diagramE MajorE A chord diagramE MajorE A chord diagramE MajorE +A chord diagramE MajorE  A chord diagramE MajorE A chord diagramE MajorE A chord diagramE MajorE    A chord diagramE MajorE  A chord diagramE MajorE A chord diagramE MajorE  A chord diagramE MajorE  +A chord diagramE MajorE  A chord diagramE MajorE A chord diagramE MajorE A chord diagramE MajorE
||---------------------|-----------------------|
||o--------------------|-----------------------|
||---------------------|-----------------------|
||--9--9-9-7-(7)-7-7-7-|--6--6-6--5--(5)-5-5-5-|
||o-7--7-7-5-(5)-5-5-5-|--4--4-4--3--(3)-3-3-3-|
||---------------------|-----------------------|
|
|   Gtr II
|   Q.     A chord diagramE MajorE +H           Q.      A chord diagramE MajorE  +H
||---------------------|-----------------------|
||o-9------7-(7)-------|-----------------------|
||--9------7-(7)-------|-10-------9--(9)-------|
||--9------7-(7)-------|-11------10-(10)-------|
||o-7------5-(5)-------|-11------10-(10)-------|
||---------------------|--9-------8--(8)-------|


  A chord diagramB5B5
  A chord diagramE MajorE A chord diagramE MajorE  A chord diagramE MajorE A chord diagramE MajorE  A chord diagramE MajorE  A chord diagramE MajorE  A chord diagramE MajorE A chord diagramE MajorE     +A chord diagramE MajorE  A chord diagramE MajorE  A chord diagramE MajorE A chord diagramE MajorE  A chord diagramE MajorE A chord diagramE MajorE  A chord diagramE MajorE A chord diagramE MajorE
|-----------------------|-----------------------|
|-----------------------|-----------------------|
|-----------------------|-----------------------|
|-9----9----9-----9-9---|-(9)----9----9----9----|
|-9---11---12----11-9---|-(9)-9-11---12---11-9--|
|-7-7--7-7--7--7--7-7---|-(7)-7--7-7--7-7--7-7--|
|
| H        +Q.      S S    W
|-7--------(7)--------7-|--7--------------------|
|-7--------(7)------7-7-|--7--------------------|
|-8--------(8)------8-8-|--8--------------------|
|-9--------(9)------9-9-|--9--------------------|
|-9--------(9)------9-9-|--9--------------------|
|-7--------(7)------7-7-|--7--------------------|


  A chord diagramE5E5                  A chord diagramB5B5
  A chord diagramE MajorE A chord diagramE MajorE A chord diagramE MajorE A chord diagramE MajorE +A chord diagramE MajorE  A chord diagramE MajorE A chord diagramE MajorE A chord diagramE MajorE   A chord diagramE MajorE A chord diagramE MajorE A chord diagramE MajorE A chord diagramE MajorE +A chord diagramE MajorE  A chord diagramE MajorE A chord diagramE MajorE A chord diagramE MajorE
|-------------------|-------------------|
|-------------------|-------------------|
|-------------------|-------------------|
|-9-9-9-9-(9)-9-9-9-|-------------------|
|-7-7-7-7-(7)-7-7-7-|-9-9-9-9-(9)-9-9-9-|
|-------------------|-7-7-7-7-(7)-7-7-7-|
|
| W                   W
|-------------------|-------------------|
|-9-----------------|-------------------|
|-9-----------------|-8-----------------|
|-9-----------------|-9-----------------|
|-7-----------------|-9-----------------|
|-------------------|-7-----------------|


  A chord diagramE5E5                  A chord diagramB5B5
  A chord diagramE MajorE A chord diagramE MajorE A chord diagramE MajorE A chord diagramE MajorE +A chord diagramE MajorE  A chord diagramE MajorE A chord diagramE MajorE A chord diagramE MajorE   A chord diagramE MajorE A chord diagramE MajorE A chord diagramE MajorE A chord diagramE MajorE +A chord diagramE MajorE  A chord diagramE MajorE A chord diagramE MajorE A chord diagramE MajorE   3x
|-------------------|---------------------||
|-------------------|--------------------o||
|-------------------|---------------------||
|-9-9-9-9-(9)-9-9-9-|---------------------||
|-7-7-7-7-(7)-7-7-7-|-9-9-9-9-(9)-9-9-9--o||
|-------------------|-7-7-7-7-(7)-7-7-7---||
|
| W                   W                   3x
|-------------------|---------------------||
|-9-----------------|--------------------o||
|-9-----------------|-8-------------------||
|-9-----------------|-9-------------------||
|-7-----------------|-9------------------o||
|-------------------|-7-------------------||


Duration 🏷Legend
---------------
W - whole; H - half; Q - quarter; A chord diagramE MajorE - 8th; S - 16th; T - 32nd; X - 64th; a - acciaccatura
+ - note tied to previous; . - note dotted; .. - note double dotted
Uncapitalized letters represent notes that are staccato (1/2 duration)
Irregular groupings are notated above the duration line
Duration letters will always appear directly above the note/fret number it represents the
duration for.  Duration letters with no fret number below them represent rests.  Multi-
bar rests are notated in the form Wxn, where n is the number of bars to rest for.  Low
melody durations appear below the staff

Tablature 🏷Legend
----------------
 h   - hammer-on
 p   - pull-off
 b   - bend
 pb  - pre-bend
 r   - bend release (if no number after the r, then release immediately)
 /\  - slide into or out of (from/to "nowhere")
 s   - legato slide
 S   - shift slide
  - natural harmonic
[n]  - artificial harmonic
n(n) - tapped harmonic
 ~   - vibrato
 tr  - trill
 T   - tap
 TP  - trem. picking
 PM  - palm muting
\n/  - tremolo bar dip; n = amount to dip
 \n  - tremolo bar down
 n/  - tremolo bar up
/n\  - tremolo bar inverted dip
 =   - hold bend; also acts as connecting device for hammers/pulls
 <>  - volume swell (louder/softer)
 x   - on rhythm slash represents muted slash
 o   - on rhythm slash represents single note slash

Misc 🏷Legend
-----------
 |  - bar
||  - double bar
||o - repeat start
o|| - repeat end
*|  - double bar (ending)
 :  - bar (freetime)
 $  - Segno
 &  - Coda
Tempo markers -  = BPM(8/16=s8/s16), where s8 = swing 8ths, s16 = swing 16ths

Almost there ...

Sign in to get your own page with links to favourite songs and more. You are just one click away...

Login with Facebook Login with Google