Search tabs and chords

Browse bands and artists

A B C D E F G H I J K L M N O P Q R S T U V W X Y Z #

Log in

[ Register here | Forgot password ]

Guitar Tabs Explorer
Print

Bass tabs :

Who Needs Shelter bass tab by Jason Mraz

-------------------------------------------------------------------
                     Artist - Jason Mraz
                    *********************
                   Song - Who Needs Shelter
                  **************************
          Album - Waiting for My Rocket to Come (2002)
         **********************************************
                    Tabbed By - Ayreon77
                   **********************
-------------------------------------------------------------------

Intro
******
G|------------------------------|-------|
D|------------------------------|-------|
A|-7~~~~~-5~~~~~-4~~~~~-5~~~~~~-|-----5-|
E|------------------------------|-5-7---|


-------------------------------
00:18
Verse 1
********
G|------------------------------|-------|----------------------|
D|------------------------------|-------|----------------------|
A|-7~~~~~-5~~~~~-4~~~~~-5~~~~~~-|-----5-|-7~~~~~-5~~~~~-4~~~~~-|
E|------------------------------|-5-7---|----------------------|


-------------------------------
00:40
Chorus
*******
G|-----------------------6---s-|-------------------------------|------------------s------s-------|
D|-------------4------6-----6\-|-------------------------------|------------s----4\6----4\6--4~~-|
A|--s----1--4-----4------------|----1------1--2--3--4-----4----|----4------2\--4------4----------|
E|-7\-2------------------------|-2-----2-2-------------4-----4-|-2-----2-2-----------------------|

-------------------------------
01:04
BREAK
******
G|------------------------------|-------|
D|------------------------------|-------|
A|-7~~~~~-5~~~~~-4~~~~~-5~~~~~~-|-----5-|
E|------------------------------|-5-7---|


-------------------------------
01:18
Verse 2
********
G|--------------------------------|-------|------------------------------------|----------|
D|--------------------------------|-------|--------9~~-------------------------|----------|
A|-7~~~~~-5~~~~~-5-4~~~~~-5~~~~~~-|-----5-|-7~~~~~-----5~~~~~-5-4~~~~~-5~~~~~~-|-5------5-|
E|--------------------------------|-5-7---|------------------------------------|----5-7---|


-------------------------------
01:45
Chorus
*******
G|----s--------|-------------------6---s-|--------------------------------|
D|---4\6-------|----------4-----6-----6\-|-4------------------------------|
A|-4------4----|----1--4-----4-----------|----4-------1--2--3--4-----4----|
E|-----------4-|-2-----------------------|------2-2-2-------------4-----4-|


G|-------------------6---s-|------------|
D|----------4-----6-----6\-|------------|
A|----1--4-----4-----------|----1--2--4-|
E|-2-----------------------|-2----------|


-------------------------------
02:12
Bridge
*******
G|----------------------------------------------------------|
D|-----------------------------------------------s--4--6--7-|
A|-2~~~------2~~-----1--2--4--2~~------------0--4\----------|
E|------2~~~------2---------------2~~--2--4-----------------|


-------------------------------
02:38
Solo
*****
G|------------------------------|-----7---|
D|------------------------------|-7-9---9-|
A|-7~~~~~-5~~~~~-4~~~~~-5~~~~~~-|---------|
E|------------------------------|---------|

-------------------------------
02:52
Outro
******
G|-----------------------------|
D|-----------------------------|
A|-7~~~~~-5~~~~~-5-4~~~~~-5~~~-|
E|-----------------------------|


ENJOY................

"Who Needs Shelter" is a song off of American singer-songwriter Jason Mark´ major-label debut album "Waiting for my rocket to com". "Who Needs Shelter" and the album was released in 2002.

Comments

Jason Mraz bass tabs for Who needs shelter