Log in

One click and you are in

Login with Facebook Login with Google

Why sign up and log in

Guitar Tabs Explorer
Jason Mraz chords for The remedy

Guitar chords

Album: Waiting for my Rocket to Come
Tabber: Andrew Connor

Ok i made tabbed this song out because all of the other ones online
have an idea of how this song goes but are horribly wrong at some points.
I based this tab off of the acoustic version found on www.vh1.com
Any mistakes on this I will assume to be typos except for maybe a chord
or two.
Enjoy and use wisely.

Intro: (Chords behind the little solo)

e--3--0--1--0-
B--3--8--1--6-
G--4--0--2--0- x4
D--5--x--3--x-
A--5--7--3--5-
E--3--8--1--6-


Verse 1:

e-----------3-------------------3------------------
B-----------3-------------------3------------------
G-----------4-------------------5------------------
D-----------5-------------------5------------------
A-----------5-------------------3------------------
E-----------3-------------------3------------------
    ...  fireworks  ...      free way
                                         *plays this chord live
                                         oh his vh1 performance 
e-----1---------------------------0------------(0)-
B-----1---------------------------6------------(0)-
G-----2---------------------------0------------(5)-
D-----3---------------------------x------------(5)-
A-----3---------------------------5------------(x)-
E-----1---------------------------6------------(5)-
 ... behind        ...         not make
e-------------3-------------------3----------------
B-------------3-------------------3----------------
G-------------4-------------------5----------------
D-------------5-------------------5----------------
A-------------5-------------------3----------------
E-------------3-------------------3----------------
    ...      born     ...        july

e-----1----------------------------0----------(0)--
B-----1----------------------------6----------(0)--
G-----2----------------------------0----------(5)--
D-----3----------------------------x----------(5)--
A-----3----------------------------5----------(x)--
E-----1----------------------------6----------(5)--
 ... something       ...         stings

e-----3----------------------------0---------------
B-----3----------------------------8---------------
G-----4----------------------------0---------------
D-----5----------------------------x---------------
A-----5----------------------------7---------------
E-----3----------------------------8---------------
 ... something     ...            kinda

e-----1----------------------------------0----------------(0)-
B-----1----------------------------------6----------------(0)-
G-----2----------------------------------0----------------(5)-
D-----3----------------------------------x----------------(5)-
A-----3----------------------------------5----------------(x)-
E-----1----------------------------------6----------------(5)-
 ... says              ...             kinda

e--------3----------------0------------------------
B--------3----------------8------------------------
G--------4----------------0------------------------
D--------5----------------x------------------------
A--------5----------------7------------------------
E--------3----------------8------------------------
 ...    cure     ...     old disease

e-----1--------------------------------------------
B-----1--------------------------------------------
G-----2--------------------------------------------
D-----3--------------------------------------------
A-----3--------------------------------------------
E-----1--------------------------------------------
    you've ....


Pre-Chorus:

e------3--------------0----------------------------
B------3--------------8----------------------------
G------4--------------0----------------------------
D------5--------------x----------------------------
A------5--------------7----------------------------
E------3--------------8----------------------------
 ... remedy  ... experience

e-------1-----------0----------(0)-----------------
B-------1-----------6----------(0)-----------------
G-------2-----------0----------(5)-----------------
D-------3-----------x----------(5)-----------------
A-------3-----------5----------(x)-----------------
E-------1-----------6----------(5)-----------------
... dangerous   liaison

e----3-------------------0-------------------------
B----3-------------------8-------------------------
G----4-------------------0-------------------------
D----5-------------------x-------------------------
A----5-------------------7-------------------------
E----3-------------------8-------------------------
... comedy    ...    serious

e------------1-----------------0-------(0)---------
B------------1-----------------6-------(0)---------
G------------2-----------------0-------(5)---------
D------------3-----------------x-------(5)---------
A------------3-----------------5-------(x)---------
   ...   strange   ...        play

e-----------3--------------------------0-----------
B-----------3--------------------------8-----------
G-----------4--------------------------0-----------
D-----------5--------------------------x-----------
A-----------5--------------------------7-----------
E-----------3--------------------------8-----------
  ...     tragedy        ....       spend

e-----1---------------------------0-------(0)------
B-----1---------------------------6-------(0)------
G-----2---------------------------0-------(5)------
D-----3---------------------------x-------(5)------
A-----3---------------------------5-------(x)------
E-----1---------------------------6-------(5)------
  ...rest       ...              light

e-------------3----------------------0-------------
B-------------3----------------------8-------------
G-------------4----------------------0-------------
D-------------5----------------------x-------------
A-------------5----------------------7-------------
E-------------3----------------------8-------------
   ...      light     ...        friends

e-----------1--------------------------------------
B-----------1--------------------------------------
G-----------2--------------------------------------
D-----------3--------------------------------------
A-----------3--------------------------------------
E-----------1--------------------------------------
     ...   all amounts to ...


Chorus:

e--6-----6-----8--------------10-----6-----8-------
B--6-----6-----8--------------10-----6-----8-------
G--7-----8-----10-------------12-----8-----10------
D--8-----8-----10-------------12-----6-----10------ x2
A--8-----6-----8--------------10-----6-----8-------
E--6-----6-----8--------------10-----6-----8-------
   I .........won't worry my life      away

Then play the intro chords twice.


Verse 2: (same pattern as verse 1)

3-3-1-0     3-0-1-0
3-3-1-6     3-8-1-6
4-5-2-0 x2  4-0-2-0  x2 for verse
5-5-3-x     5-x-3-x  (then 4 more times for pre chorus)
5-3-3-5     5-7-3-5  
3-3-1-6     3-8-1-6


Then play the Chorus again.


Bridge:

e--10------------------6--------------6------------
B--10------------------6--------------6------------
G--12------------------8--------------7------------
D--12------------------8--------------8------------
A--10------------------6--------------8------------
E--10------------------6--------------6------------
         ...         love,  ...  my time

e--------------------x-----------------------------
B--------------------13----------------------------
G--------------------0-----------------------------
D--------------------10----------------------------
A--------------------x-----------------------------
E--------------------12----------------------------
       ....         hurry when I'm ...

e--10-----------------6------------------------6---
B--10-----------------6------------------------6---
G--12-----------------8------------------------7---
D--12-----------------8------------------------8---
A--10-----------------6------------------------8---
E--10-----------------6------------------------6---
you can   ...         sun,       ....       shine

e------------------x-------------------------------
B------------------13------------------------------
G------------------0-------------------------------
D------------------10------------------------------
A------------------x-------------------------------
E------------------12------------------------------
and i'll tell you why


Pre-Chorus 2: (Bridge 2, because its the same words with different
chords)

e--6--6--4--4-
B--6--6--4--4-
G--7--8--5--6- x4
D--8--8--6--6-
A--8--6--6--4-
E--6--6--4--4-

Repeat Chorus until end of song.


Andrew Connor (Drewsuredaddy@yahoo.com)
-Feel free to email me comments.

 

________________________________________________________________________________

Other versions of The Remedy

The remedy acousticChords
The remedyTabs
The remedy acousticTabs

Almost there ...

Sign in to get your own page with links to favourite songs and more. You are just one click away...

Login with Facebook Login with Google