Log in

One click and you are in

Login with Facebook Login with Google

Why sign up and log in

Guitar Tabs Explorer
Jason Mraz tabs for Prettiest friend

Guitar tabs with lyrics

This is my version of Prettiest Friend by Jason Mraz :D

CHORDS
   A chord diagramC majorC    G*    A chord diagramA minorAm   A chord diagramE minorEm   A chord diagramFF    A chord diagramDmDm  A chord diagramG+G
e|-0----0----0----0----1----1----3----|
A chord diagramBB|-1----1----1----0----1----3----3----|
A chord diagramG+G|-0----0----2----0----2----2----0----|
A chord diagramD MajorD|-2----0----2----2----3----0----0----|
A chord diagramA augmentedA|-3----0----0----2----3----0----2----|
A chord diagramE MajorE|------3----0----0----1----0----3----|
VERSE
   A chord diagramC majorC                       G*                      A chord diagramA minorAm                     A chord diagramE minorEm
|-----------------------|-----------------------|----------------------|-----------------------|
|-----1--------1--------|-----1--------1--------|----1--------1--------|-----0--------0--------|
|--------0--------0-----|--------0--------0-----|-------2--------2-----|--------0--------0-----|
|-----------2--------2--|-----------0--------0--|----------2--------2--|-----------2--------2--|
|--3--------------------|-----------------------|--0-------------------|--2--------------------|
|-----------------------|--3--------------------|----------------------|-----------------------|


   A chord diagramFF                       A chord diagramC majorC                      G*                        (only on the 1st part of the verse)
|-----------------------|-----------------------|---------------------------|-0-----------------------------|
|-----1--------1--------|-----1--------1--------|----0--------1--------3--3-|-----3--1--0-------------------|
|--------2--------2-----|--------0--------0-----|-------0--------0----------|-------------------------------|
|-----------3--------3--|-----------2--------2--|----------0--------0-------|-------------------------------|
|-----------------------|--3--------------------|---------------------------|-------------------------------|
|--1--------------------|-----------------------|--3------------------------|-------------------------------|


CHORUS

   A chord diagramDmDm                      A chord diagramG+G                       A chord diagramC majorC                           A chord diagramA minorAm
|-----1--------1--------|-----3--------3--------|------------------------0--|--------------------|
|--------3--------3-----|--------3--------------|-----1--------1-----3------|--0--1--3-----------|
|-----------2--------2--|-----------0-----------|--------0--------0---------|--2-----------------|
|--0--------------------|-----------------------|-----------2---------------|--------------------|
|-----------------------|--------------------0--|--3------------------------|--------------------|
|-----------------------|--3--------------3-----|---------------------------|--------------------|

 A chord diagramDmDm               A chord diagramG+G                    A chord diagramC majorC
|--1--3--1--0--|--------1--0--------|--------------------------|
|--3--3--3--0--|--3--3--------3--1--|-----1--------1--------1--|
|--------------|--------------------|--------0--------0--------|
|--0-----------|--------------------|-----------2--------2-----|
|--------------|--------------------|--3-----------------------|
|--------------|--3-----------------|--------------------------|

LYRICS:
A chord diagramC majorC                          G*
This is what I look like today
         A chord diagramA minorAm                        A chord diagramE minorEm
And I m trying not to pull out my hair
      A chord diagramFF                               A chord diagramC majorC                             G*
I m trying hard to grow it  cause I m far too shy to show it back there
        A chord diagramC majorC                         G*
That s probably why I like wearing hats
           A chord diagramA minorAm                           A chord diagramE minorEm
There s no denying I m deferring the facts
A chord diagramFF                             A chord diagramC majorC
Avoiding confrontation lacks tact in a situation
G*
Behind every line is a lesson yet to learn


A chord diagramDmDm          A chord diagramG+G           A chord diagramC majorC                           A chord diagramA minorAm
But if you ask me, the feeling that I m feeling is overwhelming
    A chord diagramDmDm              A chord diagramG+G                     A chord diagramC majorC
And oh, it goes to show, I ve so much to know


  A chord diagramC majorC                           G*
I wrote this for my prettiest friend
          A chord diagramA minorAm                       A chord diagramE minorEm
But while trying not to prove that I care
A chord diagramFF                       A chord diagramC majorC                       G*
Trying not to make all my moves in one motion and scare her away
     A chord diagramC majorC                            G*
Well she can't see she's making me crazy now
  A chord diagramA minorAm                            A chord diagramE minorEm
I don't believe she knows she's amazing how
           A chord diagramFF                    A chord diagramC majorC
She has me holding my breath, so I d never guess
           G*
That I m a none such unsuitable, suited for her


A chord diagramDmDm          A chord diagramG+G           A chord diagramC majorC                             A chord diagramA minorAm
But if you ask me, the feeling that I m feeling is complimentary
    A chord diagramDmDm             A chord diagramG+G         A chord diagramC majorC                      A chord diagramA minorAm
And oh, it goes to show, the moral of the story is boy loves girl
        A chord diagramDmDm                           A chord diagramG+G                  A chord diagramC majorC
And oh-whoa love, the way that it unfolds is yet to be told


            A chord diagramA minorAm          A chord diagramE minorEm                   A chord diagramFF                       A chord diagramC majorC
I know that I should be brave,  cause even pretty can be seen by the blind
           A chord diagramA minorAm         A chord diagramE minorEm              A chord diagramFF                           A chord diagramG+G
I know that I cannot wait, until the day we finally learn how to find each other,

Redefining open minds


A chord diagramDmDm          A chord diagramG+G           A chord diagramC majorC                           A chord diagramA minorAm
And if you ask me, the feeling that I m feeling is overjoyed
           A chord diagramDmDm                A chord diagramG+G
And it's golden; it goes to show then,
     A chord diagramC majorC                             A chord diagramA minorAm
The ending of this song should be left alone
     A chord diagramDmDm                A chord diagramG+G                           A chord diagramC majorC
ⓘ Guitar tab for 'Prettiest Friend' by Jason Mraz, a male acoustic artist from Mechanicsville, Virginia, USA. Jason Mraz was born in 1977. Jason Mraz is known for his dreamy rock/pop music.

Almost there ...

Sign in to get your own page with links to favourite songs and more. You are just one click away...

Login with Facebook Login with Google