Log in

One click and you are in

Login with Facebook Login with Google

Why sign up and log in

Guitar Tabs Explorer
Jason Mraz tabs for Live high

Guitar tabs with lyrics

ARTIST: JASON MRAZ

SONG: LIVE HIGH

ALBUM: WE SING, WE DANCE, WE STEAL THINGS (2008)

Hi Everybody,

This is the first Tab I made. I´m pretty sure that it´s accurate!

Any Corrections?   g_soul@gmx.de

Hope u enjoy it! :)
Intro: (1x)  listen for correct timing


    A chord diagramA augmentedA            A chord diagramC#m7C#m7          A chord diagramCm7Cm7        A chord diagramBm7Bm7         A chord diagramDm7Dm7

é------------|--------------|----3--->---2-x-2222--|-----5----|
B-----2-h3p3-|----5------5--|----4--->---3-x-3333--|-----6----|
G-----2------|----4------4--|----3--->---2-x-2222--|-----5----|
D---2--------|--6------6----|----5--->---4-x-4444--|---7------|
A--0---------|-4------4-----|----3--->---2-x-2222--|--5-------|
E------------|--------------|----------------------|----------|


Verse: (4x)


       A chord diagramA augmentedA             A chord diagramC#m7C#m7          A chord diagramDsus2Dsus2          A chord diagramDm7Dm7

é---------------|-------------|--------------|--------------|
B------2----2---|-----5-----5-|-----5-----5--|-----6-----6--|
G------2----2---|-----4-----4-|-----7-----7--|-----5-----5--|
D----2----2-----|---6-----6---|---7-----7----|---7-----7----|
A---0----0------|--4-----4----|--5-----5-----|--5-----5-----|
E---------------|-------------|--------------|--------------|


Chorus: (2x) (listen to strumming) play it funky style! ;-)


     A chord diagramA augmentedA            A chord diagramC#m7C#m7       A chord diagramCm7Cm7      A chord diagramBm7Bm7          A chord diagramDm7Dm7

é--0-x-0000--|--4-x-4444--|---3-->--2-x-2222--|--5-x-5555-----|
B--2-x-2222--|--5-x-5555--|---4-->--3-x-3333--|--6-x-6666-----|
G--2-x-2222--|--4-x-4444--|---3-->--2-x-2222--|--5-x-5555-----|
D--2-x-2222--|--6-x-6666--|---5-->--4-x-4444--|--7-x-7777-----|
A--0-x-0000--|--4-x-4444--|---3-->--2-x-2222--|--5-x-5555-----|
E------------|------------|-------------------|---------------|


Bridge: do some picking here, it will sound nice, even though i´m not sure

        which excact notes he plays. :P

Other versions of Live High

Live highChords

Almost there ...

Sign in to get your own page with links to favourite songs and more. You are just one click away...

Login with Facebook Login with Google