Log in

One click and you are in

Login with Facebook Login with Google

Why sign up and log in

Guitar Tabs Explorer
Jason Mraz tabs for Halfway home

Guitar tabs with lyrics

Halfway Home

Words & Music by Jason Mraz

This tab is all my own work and I have not used any published music to
write this.
NOTE: The picking of most of the song is relatively even except

in a few places. This song Jason^Òs live cd from Java Joe^Òs (I

think).  If it isn^Òt, you can download the song to make it

easier to learn


Capo on 2nd Fret



INTRO


E---3----------3--------------2----------2-----------------------

B-----2-----2-------------2-------0----0------------0------------

G--------0------------0--------------1----------1----------------

D-----------------0--------------------------2-------------------

A----------------------------------------------------------------

E----------------------------------------------------------------


E----0----------0------------[-----------------------]----------

B-------2----2------------2^×-[-3---------------------]----------

G----------2-----------2-----[---2------------2---0--]---------

D------------------0---------[-----------2--0--------]---------

A----------------------------[-----1-0---------------]---------

E----------------------------[-----------------------]---------


OR

Jason Mraz switches between these two)


E----0-----------------------[-----------------------]-----

B-------2----2-----------2---[-3---------------------]------

G----------2---------2-------[---2------------2---0--]---------

D---------------0------------[----------2--0---------]---------

A----------------------------[-----1-0---------------]---------

E----------------------------[-----------------------]-----




This is played right before the 1st verse begins

E-[-0-------0---------2------]-----------------------------------

B^×[--2--------2----------0---]-----------------------------------

G^×[-----2--------2-----------]-----------------------------------

D^×[--------------------------]-----------------------------------

A^×[--------------------------]-----------------------------------

E^×[--------------------------]-----------------------------------



VERSE

(I used to walk all alone^Å)

(I used to think that^Å)


E---3----------3--------------2----------2-----------------------

B-----2-----2-------------2-------0----0------------0------------

G--------0------------0--------------1----------1----------------

D-----------------0--------------------------2-------------------

A----------------------------------------------------------------

E----------------------------------------------------------------


E----0----------0------------[-----------------------]----------

B-------2----2------------2^×-[-3------------------3--]----------

G----------2-----------2-----[---2-----2-------2-----]---------

D------------------0---------[------0-------0--------]---------

A----------------------------[------------1----------]---------

E----------------------------[-----------------------]---------


(^Åand make others get out of my way^Å)

(..but they won^Òt come ^Ñtil I meet them^Å)

E---3----------3--------------2----------2-----------------------

B-----2-----2-------------2-------0----0------------0------------

G--------0------------0--------------1----------1----------------

D-----------------0--------------------------2-------------------

A----------------------------------------------------------------

E----------------------------------------------------------------




E----0----------0------------[-0------0-------2-----]----------

B-------2----2------------2^×-[---2------2-------0---]----------

G----------2-----------2-----[-----2------2---------]---------

D------------------0---------[----------------------]---------

A----------------------------[----------------------]---------

E----------------------------[----------------------]---------



CHORUS

(I^Òm halfway home^Å)

*The second time he sings the chorus, he strums it.  I wrote down the
chords at the bottom of the tab, just scroll down. ;)


E---------------------------3-------3----------------------------

B---3-------3----------3------2---2--------2---------------------

G-----2---2---------2-----------0--------0-----------------------

D-------0--------0---------------------0-------------------------

A-------------1--------------------------------------------------

E----------------------------------------------------------------


E--2--------2-----------0-------0----------[---0-----0-----2----]

B----0---0--------0-------2---2-------2----[-----2-----2-----0--]

G------1--------1-----------2-------2------[-------2-----2------]

D-------------2-------------------0--------[--------------------]

A------------------------------------------[--------------------]

E------------------------------------------[--------------------]




A chord diagramC majorC     032010

A chord diagramG+G     320000

?     201200

A chord diagramE minorEm    022000

Other versions of Halfway Home

Halfway home acousticTabs

Almost there ...

Sign in to get your own page with links to favourite songs and more. You are just one click away...

Login with Facebook Login with Google