Log in

One click and you are in

Login with Facebook Login with Google

Why sign up and log in

Guitar Tabs Explorer
Mr. Big tabs for Voodoo kiss

Guitar tabs

Album: Lean Into It
As tabbed by Joe Muggah

` = pinch harmonic

Intro (played on an acoustic)
e-----------------|------------------------------------------
B-----------------|------------------------------------------
G-----------------|--3h5p3p0------0-0----3h5p3p0------0-0----
D--x---x---x---x--|----------h3-0----------------h3-0--------
A--x---x---x---x--|------------------------------------------
E--x---x---x---x--|------------------------------------------

(continued)
e------------------------------------------------------------
B------------------------------------------------------------
G--3h5p3p0----0-----------------------3h5p3p0------0-0-------
D----------h3---3-2-0-------------------------h3-0-----------
A---------------------4h5p4p5--------------------------------
E------------------------------6-3---------------------------

(continued)
e------------------------------------------------------------
B------------------------------------------------------------
G--3h5p3p0------0-0----3h5p3p0----0--------------------------
D----------h3-0----------------h3---3-2-0--------------------
A-----------------------------------------4h5p4p5------------
E--------------------------------------------------6-3-------

(continued)
e------------------------------6--5--3-----------------------
B------------------------------6--5--3-----------------------
G----3----4-----5-----6-----7--6--5--3-----3-----4-----5-----
D------2----3-----4-----5--------------------2-----3-----3---
A--4-----5----6-----7-----8--------------4-----5-----6-------
E------------------------------------------------------------

(continued)
e-------------6--5--3----------------------------------------
B-------------6--5--3----------------------------------------
G----6-----7--6--5--3----3-----4-----5-----6-----7--7^----6--
D------5-------------------2-----3-----4-----5------6^-------
A--7-----8-------------4-----5-----6-----7-----8----8^--7----
E------------------------------------------------------------

(continued)
e------------------------------------------------------------
B------------------------------------------------------------
G--5--4------------------------------------------------------
D--4--3---(end with a finger tap on the guitar body)---------
A--6--5------------------------------------------------------
E------------------------------------------------------------


Chorus 1 (Guitar 1)
e------------------------------------------------------------
B------------------------------------------------------------
G------------------------------------------------------------
D-------------7--6-5------5-6--------------7--6-5------5-6---
A--0-0-5p3p0----------5---5-6---0-0-5p3p0----------5---5-6---
E-------------------------3-4--------------------------3-4---

(continued)
e------------------------------------------------------------
B------------------------------------------------------------
G-------------------------------------------------4v---------
D--------------7--6-5------5-6--------------7--6--5v---------
A--0-0-5p3p0-----------5---5-6---0-0-5p3p0-------------------
E--------------------------3-4-------------------------------


Fill 1 (Guitar 2)
e------------------------------------------------------------
B--10--12^13--10v----------------3^-p1p0--------1h3p1v-------
G----------------------------------------h2--0---------------
D------------------------------------------------------------
A------------------------------------------------------------
E------------------------------------------------------------


Verse
e------------------------------------------------------------
B--3---------------------------3-----------------------------
G--2-----4m-----2-2-----4m-----2-----4m-----2-2-----4m-------
D--0-----5m-----0-0-----5m-----0-----5m-----0-0-----5m-------
A-----3m-5m-3m-------3m-5m-3m-----3m-5m-3m-------3m-5m-3m----
E-----1m-3m-1m-------1m-3m-1m-----1m-3m-1m-------1m-3m-1m----


Riff 1
e------------------------------------------------------------
B------------------------------------------------------------
G---------4^-\-----------------------------------------------
D------5--5^-\---------------3-------------------------------
A--3m--5-----------0--3h5p3-----5-3-0------------------------
E--1m--3-----------------------------------------------------


Riff 2
e---------0-------0--------------------------7---\-----------
B---------3------------------------------1/--6---\-----------
G---------1---1h2----------------------------7---\-----------
D--2-2-2--2--------------------------------------------------
A--2-2-2--2-----------4m-5m--5m-5m--5m-----------------------
E--0-0-0--0-----------2m-3m--3m-3m--3m-----------------------


Chorus 2 (Guitar 1)
e------------------------------------------------------------
B------------------------------------------------------------
G-----------------------------------------------------4^-----
D--------------7--6-5------5-6---------------7--6-5---5^-----
A--0-0-5p3p0-----------5---5-6---0-0-5p3p0-------------------
E--------------------------3-4-------------------------------

(continued)
e------------------------------------------------------------
B------------------------------------------------------------
G-------------------------------------7----------------------
D-------------7--6-5------5-6----5----7----------------------
A--0-0-5p3p0----------5---5-6----5----5----------------------
E-------------------------3-4----3---------------------------


Fill 2
e---------------------------------------------------------3/-
B-------------------10^--------------------------------------
G--7^---5----------------7-7--9v-\------5----------7-5-4v----
D---------5v-\----------------------------7v-\---------------
A------------------------------------------------------------
E------------------------------------------------------------

Fill 3
e---------------------------------------12-------------------
B-------------------10v---------------------13^--------------
G--7^---5----------------------------------------------------
D---------5v-\----------------7v-\---------------------------
A------------------------------------------------------------
E------------------------------------------------------------


Solo A chord diagramA augmentedA (Guitar 1)
e------------------------------------------------------------
B------------------------------------------------------------
G--7-8-9---------------------7-8-9---------------------------
D--7-8-9--0h2m-2m-2m-2m-2m---7-8-9--0h2m-2m-2m-2m-2m---------
A--5-6-7--0h2m-2m-2m-2m-2m---5-6-7--0h2m-2m-2m-2m-2m---------
E---------0m---0m-0m-0m-0m----------0m---0m-0m-0m-0m---------

(continued)
e------------------------------------------------------------
B------------------------------------------------------------
G--5-7-------------------5-7---------------------------------
D--5-7-7---7m--7m--7m----5-7-7---7m--7m--7m------------------
A--3-5-7---7m--7m--7m----3-5-7---7m--7m--7m------------------
E------5---5m--5m--5m--------5---5m--5m--5m------------------


Solo A chord diagramBB (Guitar 2)
e-----------------------------------4------5------6------7---
B--5v-------------5v------------------3------4------5------6-
G------3p2p0----------3p2p0------4m-----5m-----6m-----7m-----
D------------h2-------------h2-------------------------------
A------------------------------------------------------------
E------------------------------------------------------------

(continued)
e-----8----9--\---/-9--9--9--9-9-------------<5>-------------
B-------7--8--\--------8--8--8-8--------<5>---------5v--/----
G--8m------9--\--------9--9--9-9-----------------------------
D----------------------------------7-x------x-----7----------
A----------------------------------7-x------x-----7----------
E----------------------------------5-x------x-----5----------

(continued)
e------------------------------------------------------------
B------------------------------------------------------------
G-------------------------------------7---9-9^----7--7-\5----
D----------------7--7^------5^--------7---9-9^----7--7-\5--7-
A--x-5v--x-7v--x--------x-x------x-x-----------------------7-
E--x-----x-----x--------x-x------x-x-------------------------

(continued)
e------------------------------------5p3--------3--3p2p0-----
B----------------------8--10-10v`--------h5-3h5--------------
G--5---------------------------------------------------------
D--5--7p5-----5--7-7-----------------------------------------
A---------h7-------------------------------------------------
E------------------------------------------------------------

(continued)
e-----------------------5p3^----3/\-------3h5-3v`--7`-3------
B--4h5p4h5-3p1------2h3---------------3h5--------------------
G--------------h2--------------------------------------------
D------------------------------------------------------------
A------------------------------------------------------------
E------------------------------------------------------------

(continued)
e-------------------------12---------------------------------
B---------------15-14-12-----15-14-12--12-12-10--------------
G--------12-14----------------------------------h12-12-------
D--12-14-----------------------------------------------------
A------------------------------------------------------------
E------------------------------------------------------------

(continued)
e------------------------------------------------------------
B--12^---12--10----------------------------------------------
G------------------------------------------------------------
D------------------------------------------------------------
A------------------------------------------------------------
E------------------------------------------------------------


Bridge A chord diagramA augmentedA (Guitar 1)
e------------------------------------------------------------
B------------------------------------------------------------
G------------------------------------------------------------
D---7p5----7p5-----7p5h7p5h7p5h7p5h7p5-----7p5h7-\---7--7----
A----------------------------------------------------7--7----
E----------------------------------------------------5--5----

(continued)
e-----------------------15~----------------------------------
B-----------------------17~----------------------------------
G------------------------------------------------------------
D---------------7--7------------7--7-------------------------
A--0--3p0-------7--7------------7--7-------------------------
E----------3p0--5--5------------5--5-------------------------


Bridge A chord diagramA augmentedA (Guitar 1)
e------------------------------------------------------------
B------------------------------------------------------------
G-------14--12---11----11-\--------14--12---11----11-\-------
D-------14--12---12----12-\--------14--12---12----12-\-------
A--7-/-------------------------7/----------------------------
E------------------------------------------------------------


Riff 3
e-----0-----0-------0-----------------0-----0----------------
B-----3-----3-------------------------3-----3----------------
G-----1-----1---1h2-----2p1p0---------1-----1----------------
D--2m-2-2m--2-----------------h2---2m-2-2m--2------4-----5---
A--2m---2m--2----------------------2m---2m--2---4m-4--5m-5---
E--0m---0m--0----------------------0m---0m--0---2m-2--3m-3---


Riff 4
e---------------4h5p4h5p4h5p4h5p4h5p4--------17-\--12-10-12v-
B--3-3p1p0---------------------------------------------------
G----------h2------------------------------------------------
D------------------------------------------------------------
A------------------------------------------------------------
E------------------------------------------------------------

(continued)
e--12p10-----------------------------------------3v----------
B--------h12--13--13p10-------3p1p0--1-1--3-3-5------3^-p1p0-
G------------------------------------------------------------
D------------------------------------------------------------
A------------------------------------------------------------
E------------------------------------------------------------

(continued)
e---------3-5-3h5p3-2-0-/5v----17---17p15p14------17v--------
B--1-1v--------------------------------------h17-------------
G------------------------------------------------------------
D------------------------------------------------------------
A------------------------------------------------------------
E------------------------------------------------------------


Outro
e------------------------------------------------------------
B------------------------------------------------------------
G--6---5--4--------------5--4--2-----------------------------
D--7---6--5---6---5--4---5--4--2-----------------------------
A-------------7---6--5---3--2--0-----------------------------
E------------------------------------------------------------


Intro

Chorus 1, Fill 1

Verse

Riff 1

Verse

Riff 2

Chorus 2, Fill 2

Chorus 1

Verse

Riff 1

Verse

Riff 2

Chorus 2, Fill 3

Chorus 1

Solo A, A chord diagramBB

Bridge A, A chord diagramBB

Riff 3

Chorus 2, Riff 4

Chorus 1

Outro

Almost there ...

Sign in to get your own page with links to favourite songs and more. You are just one click away...

Login with Facebook Login with Google