Log in

One click and you are in

Login with Facebook Login with Google

Why sign up and log in

Guitar Tabs Explorer
Mr. Big chords for To be with you

Guitar chords with lyrics

To be with you
by mr big

Tabbed by luke
verse
       c#m           A chord diagramE MajorE
       hold on little girl
       A chord diagramA augmentedA                A chord diagramE MajorE
       show me what he's done to you
       c#              A chord diagramE MajorE
       stand up little girl
    A chord diagramA augmentedA                 A chord diagramE MajorE
A chord diagramA augmentedA broken heart cann't be that bad
                A chord diagramA augmentedA             A chord diagramE MajorE
       when its through,its through
          A chord diagramA augmentedA                A chord diagramE MajorE
       fate can twist the both of you

         A chord diagramD MajorD
       so come on baby come on over
         A chord diagramBB
       let me be the one to show you


chorus
        A chord diagramE MajorE               A chord diagramA augmentedA       A chord diagramBB       A chord diagramE MajorE
       I'm the one who wants to be with you
        A chord diagramE MajorE               A chord diagramA augmentedA        A chord diagramBB       A chord diagramE MajorE
        deep inside I hope youle feel it too
        A chord diagramE MajorE               A chord diagramA augmentedA        A chord diagramBB      c#m
       waitin on the line of feelin blue
        A chord diagramE MajorE               A chord diagramA augmentedA        A chord diagramBB       A chord diagramE MajorE
        just to be the next to be with you

inturlude
          A chord diagramA5A5                           c#m
        why be alone, because we could be
                       A chord diagramG+G
         together baby.you could make my
                          A chord diagramG+G
         life worth while,I can make you

         start to smile

solo

E/----------------------------------------
B/------5---------------------------------
G/1-2/4---6--4--4--4---4------------------
D/2-4/6---7--7--4--4h6-4h6----------------
A/-----------------------------------------
E/-----------------------------------------

E/----------4-2h4p2-0--0-0-------------
B/------5---5--------0---0-------------
G/1-2/4---6----------------------------
D/2-4/6---7----------------------------
A/-------------------------------------
E/------------------------------0------

E/------------------------------------
B/------5------7-9---9-----------12--10
G/1-2/4---6--4-8-9---9---------9---9--
D/2-4/6---7--7-9-11-11----9-11-------
A/---------------------/11------------
E/------------------------------------
                                har
E/--------------4--2h4p2p0---0--12-------
B/9-10-12-------5----------0----12-------
G/--------/9-----------------------11/13-
D/-----------11--------------------------
A/---------------------------------------
E/---------------------------------------

high chorus

           A chord diagramG+G  A chord diagramC majorC  A chord diagramD MajorD  A chord diagramG+G
           A chord diagramG+G  A chord diagramC majorC  A chord diagramD MajorD  A chord diagramG+G
           A chord diagramG+G  A chord diagramC majorC  A chord diagramD MajorD  A chord diagramE minorEm
           A chord diagramG+G  A chord diagramC majorC  A chord diagramD MajorD  A chord diagramG+G

Thank you for reading my tab.it is all
perfectly acurate because Im'e a paul gilbert
fan and cheaked it out on an in structional
vidio and the cords are easy.Enjoy.luke

Other versions of To Be With You

To be with you (Ver. 2)Chords
To be with you acousticChords
To be with youTabs
To be with you (Ver. 2) - soloChords

Almost there ...

Sign in to get your own page with links to favourite songs and more. You are just one click away...

Login with Facebook Login with Google