Log in

One click and you are in

Login with Facebook Login with Google

Why sign up and log in

Guitar Tabs Explorer
Mr. Big bass tabs for Promise her the moon

Bass tabs

Promise Her The Moon
    ====================
            Mr Big (Bump Ahead)

|-----------------|-----------------|-----------------|-----7-5---------|
|-------2---------|-----------------|-------2---------|---5-------------|
|-5---------------|-3-----3-----2---|-5-------------2-|-3---------------|
|-----------------|---------------3-|-----------------|-----------------|

                                 To Coda
|-----------------|-----------------|-----------------|-----------------|
|-------2---------|-----------------|-3-----2---------|-----------------|
|-5---------------|-3----3------2---|------------3----|-----------1-1-3-|
|-----------------|---------------3-|-----------------|-----------------|
Verse
|-----------------|-----------------|-----------------|-----------------|
|o----------------|-----------------|-----------------|-----------------|
|o----------------|-----------------|-----------------|-----------------|
|-3-----3---------|-----------------|-3------3--------|-----------------|

|----------------|-------------------|----------------|-[5][4]----------|
|----------------|-(5)-(17-17-17-17)-|----------------|-------[5]-------|
|-3----(15)------|-------------------|-3----(15)------|-----------------|
|----------------|------------------|-----------------|----------3-2-x2-|
    T        T T T T      T

|-----------------|-----------------|-----------------|-----------------|
|-----------------|-----------------|-----------------|-----------------|
|-----------------|-----------------|-----------------|-----------------|
|-3----(15)-------|-----------------|-3-----(15)------|-----------------|

|-----------------|-----------------|-----------------|-----------------|
|-----------------|-----------------|-----------------|-----------------|
|-3----(15)-------|-----------------|-3-----(15)------|-----------------|
|-----------------|-----------------|-----------------|-----------------|

|-----------------|-----------------|-----------------|-----------------|
|-----------------|-----------------|-----------------|-----------------|
|-2---------------|-3---------------|-----------------|-3---------------|
|-----------------|-----------------|-0---------------|-----------------|

|-----------------|-----------------|-----------------|-----------------|
|-----------------|-----------------|-----------------|-----------------|
|-2---------------|-3---------------|-0---------------|-----------------|
|-----------------|-----------------|-----------------|-1----(13)-------|

$ Chorus
|-----------------|-----------------|-----------------|-----7-5---------|
|-------2---------|-----------------|--------2--------|---5-------------|
|-5---------------|-3-----3-----2---|-5-------------2-|-3---------------|
|-----------------|---------------3-|-----------------|-----------------|

|-----------------|-----------------|-----------------|-----------------|
|-------2---------|-----------------|--------2--------|-----------------|
|-5---------------|-3-----2---------|-5---------------|-----------------|
|-----------------|-----------------|-----------------|-1---------------|

                            _________________
         DC 3rd Time             1
|-----------------|-----------------|-----------------|-----------------|
|-----------------|-----------------|-----------------|-----------------|
|-3---------------|-----------------|-----------------|-3---------------|
|-----------------|-3-----(15)------|-----------------|-----------------|

__________________ ___________
         |2
|-----------------|-----------------|-----------------|-----------------|
|---5-4-2--------o|-----------5-----|-----------------|-----------5-----|
|-3-------5------o|-----------------|-----------------|-----------------|
|-----------------|-1-----1-----1-2-|-3-----3---3-3-2-|-1-----1-----1-2-|

|-----------------|-----------------|-----------------|-----------------|
|-----------------|-----------------|-----------------|-----------------|
|-----------------|-0-----0---------|-3-----3---------|-0-----0---------|
|-3-----3---3-3-4-|-----------------|-----------------|-----------------|

               /.\  D$        Coda /.\
|-----------------|-----------------||        |-----------------|
|-----------------|------------3----||        |-----------------|
|-5-----5---------|-2-----3---------||        |-----------------|
|-----------------|-----------------||        |------3----------|


Ian
ian@ohm.york.ac.uk

Almost there ...

Sign in to get your own page with links to favourite songs and more. You are just one click away...

Login with Facebook Login with Google