Log in

One click and you are in

Login with Facebook Login with Google

Why sign up and log in

Guitar Tabs Explorer
Mr. Big tabs for Not one night

Guitar tabs with lyrics

+----------------------------------------+
    |       Mr. Big - "Not One Night"        |
    |  From the album "Big, Bigger, Bigest"  |
    +----------------------------------------+

+-------------------------------------+
| Abel F. Laborda (aflaborda@ono.com) |
| June, 2002                          |
+------------+          -oOo-         +-------------------------------------+
             | This song is protected by international copyright laws. You  |
             | can use this transcription for private use only.             |
             | You can distribute this transcription freely. You can also   |
             | modify it, but you can't change original author info or this |
             | legal noticie.                                               |
             +--------------------------------------------------------------+
- Chords:
----------

 (Standart Tunning: 1E, 2B, 3G, 4D, 5A, 6E)


      A chord diagramC# minorC#m    A chord diagramE MajorE     A chord diagramE minorEm    A chord diagramD MajorD    A chord diagramF# minorF#m   A chord diagramG# minorG#m   A(1)  A(2)   A chord diagramA minorAm   B(1)  B(2)  A chord diagramB minorBm
A chord diagramE MajorE -----4-----0-----7-----2-----2-----4-----5-----0-----5-----2-----7-----2-----
A chord diagramBB -----5-----0-----8-----3-----2-----4-----5-----2-----5-----4-----7-----3-----
A chord diagramG+G -----6-----1-----9-----2-----2-----4-----6-----2-----5-----4-----8-----4-----
A chord diagramD MajorD -----6-----2-----9-----0-----4-----6-----7-----2-----7-----4-----9-----4-----
A chord diagramA augmentedA -----4-----2-----7-----X-----4-----6-----7-----0-----7-----2-----9-----2-----
A chord diagramE MajorE -----X-----0-----X-----X-----2-----4-----5-----X-----5-----X-----7-----X-----


- Lyrics:
----------

  Verse 1:

A chord diagramE MajorE         A chord diagramC# minorC#m           A chord diagramG# minorG#m
I used to dream of only you
        A(1)       A chord diagramA minorAm
now I don't do that.
A chord diagramE MajorE         A chord diagramC# minorC#m               A chord diagramG# minorG#m
I used to miss talkin' to you
        A(1)       A chord diagramA minorAm
oh, now I don't do that.


  Pre-Chorus:

A chord diagramF# minorF#m               B(1)             A chord diagramF# minorF#m
Since you've been gone I learned to stop
            A chord diagramA minorAm
tryin' to hold on because


  Chorus:

        A chord diagramE MajorE       A(2)       A chord diagramC# minorC#m        A chord diagramG# minorG#m
there's not one night, one single day
     A(2)       B(1)    A chord diagramC# minorC#m
that I wouldn't give to you.
   A chord diagramE MajorE       A(2)     A chord diagramC# minorC#m       A chord diagramG# minorG#m
So with all my might in every way,
   A(1)     A chord diagramA minorAm      A chord diagramE MajorE
I'll try to forget you too.


  Verse 2 (same chords as Verse 1):

I thought you could tell me anything
yeah, you used to do that.
You let me inside of everything
yeah, you used to do that.


  Pre-Chorus (same chords):

Never to change at least I thought
it feels so strange because


  Chorus (same chords):

there's not one night, one single day
that I wouldn't give to you.
So with all my might in every way,
I'll try to forget you too.


  Bridge:

B(2)                A chord diagramE minorEm
Loneliness may come knockin' at my door
B(2)                             A chord diagramE minorEm
where I'm comin' from that don't phase me anymore.
A(1)                          A chord diagramD MajorD                      A chord diagramB minorBm
Time has shed a little light on where I'm supposed to be
A chord diagramE MajorE                                       A(1)
there ain't no used in thinking you'll come running back to me.


  Solo (same chords as Verse 1):

--------12----11--9-----------|------------------------|--------------------------|
--12----14----12--10--12--10--|--9----10--12-----------|--9-----11------12--------|
--13------------------13--11--|--9----11--13-----------|--------------------------|
------------------------------|--------------------/9--|----/9-----/11------------|
------------------------------|------------------------|--------------------------|
------------------------------|------------------------|--------------------------|


--------------------------|--0--------------------|---------------------------|
-----5--------------------|--5--------------------|------------------------9--|
--6-----4-----5--4-----4--|--4--------------------|--8--9---11--9-------------|
-----------7--------7-----|--6----------6--7--9---|--9--11--13--11----9-------|
--------------------------|--7----------7--9--11--|---------------------------|
--------------------------|--0--------------------|---------------------------|


-----------------------|---------------------------------|--0-------------------|
------------9--10--12--|--10------12^(1/2)----12--10--9--|--7-------------------|
------------9--11--13--|--9------------------------------|--4-------------------|
-----------------------|----------------------14--10--9--|--4-------------------|
-----------------------|---------------------------------|--7-------------------|
-----------------------|---------------------------------|----------------------|


  Pre-Chorus (same chords):

Since you've been gone I learned to stop
tryin' to hold on because


  Chorus (same chords): x2

there's not one night, one single day
that I wouldn't give to you.
So with all my might in every way,
I'll try to forget you too.


+------------------------------------------------------+
| Feel free to send me any comments. I'll be grateful. |##
| I wish you a life plenty of love and music.          |##
| Greetings from Spain.                                |##
|                                                      |##
| Abel F. Laborda (aflaborda@ono.com)                  |##
| http://webs.ono.com/aflaborda                        |##
+------------------------------------------------------+##
  ########################################################

Other versions of Not One Night

Not one nightChords

Almost there ...

Sign in to get your own page with links to favourite songs and more. You are just one click away...

Login with Facebook Login with Google