Log in

One click and you are in

Login with Facebook Login with Google

Why sign up and log in

Guitar Tabs Explorer
Mr. Big tabs for Just take my heart

Guitar tabs

Intro of "Just take my heart" by Paul Gilbert/Mr.Big
Tab transcription by Mark van 't Zet


To play it right, let all the notes ring except those marked with
a point (staccato). This requires accurate fingering.. I put it under
the tab in the first bit.

                                            .
--------3-0-------------------------------3-0----------5-7-8---
------3-----3---0---------------------1-3----------5-8---------
----5---------5---5---0------------------------5-7-------------
--------------------7---7---0----------------------------------
--0-----------------------7---7--------------------------------
--------------------------------8---1--------------------------

lh: 3 1 2 - 1 3 - 3 4 - 4 3 - 3 4              <slight p.m>
Repeat that once, then:

  . . .                   .  .    . . .
--5-7-8-7---.---5---7-8p7-10-10---5-7-8-7-.--------------------
--8-8-8-8---8---8---8-8---12-12---8-8-8-8-8---6---8-6h8p6\5-3--
--0-0-0-0---0---0---0-0---0--0----0-0-0-0-0-0-0---0-0-------0--
---------------------------------------------------------------
---------------------------------------------------------------
---------------------------------------------------------------


Also repeat that once, then:

------------------------------8-------8----
--5-3h5p3--1---0------------8---8---8---8--
--0-0----------0----------5-------5-------5 etc.
-------------------------------------------
-------------------------------------------
-------------------------------------------

Almost there ...

Sign in to get your own page with links to favourite songs and more. You are just one click away...

Login with Facebook Login with Google