Log in

One click and you are in

Login with Facebook Login with Google

Why sign up and log in

Guitar Tabs Explorer
Mr. Big bass tabs for Green tinted sixties mind

Green Tinted Sixties Mind bass tab - Mr. Big

Mr. Big bass tabs for Green tinted sixties mind

Bass tabs

I have picked up "Green-Tinted Sixties Mind" of Mr.Big.
Then I added a bit and tried to revise it. So if you think it may be
useful, add it.
Green-Tinted Sixties Mind by Mr. Big (Billy Sheehan)

The last bar od the solo is in 3/4 time.

A:Intro                  J:End

G|------------------|-2- - -4-- - -/- -|  |-7-7-7-9-- - - - -|
D|-6- - -7-- - -\- -|-0- - -2-- - -/- -|  |-7-7-7-9-- - - - -|
A|-7- - -7-- - -\- -|------------------|  |-5-5-5-7-- - - - -|
E|------------------|------------------|  |------------------|


B:

G|------------------|------------------|------------------|
D|------------------|------------------|------------------|
A|------------------|------------------|------------------|
E|-0- - -0-- -0- - -|-0- - -0-- -0- - -|-2- - -2-- -2- - -|

 |------------------|
 |------------------|
 |-2-2-2-0-- - - - -|
 |--(2)-------------|


C:Verse

G|------------------|-2- - -4-- - -/- -|------------------|
D|-6- - -7-- - -\- -|-0- - -2-- - -/- -|-6- - -7-- - -\- -|
A|-7- - -7-- - -\- -|------------------|-7- - -7-- (7-5) -|
E|------------------|------------------|---------------(7)|

D:

G|-----------------------|
D|-12-12-12-12-- -14- - -|
A|-12-12-12-12-- -14- - -|
E|-----------------------|


E:

G|--------------7---|--------------6---|--------------4---|
D|------------------|------------------|------------------|
A|-5-5-5-5--5-5---4-|-4-4-4-4--4-4---2-|-2-2-2-2--2-2---0-|
E|------------------|------------------|------------------|

 |------------------|
 |-0---0----0---0-2-|
 |---0---0----0-----|
 |------------------|


F:Chorus

G|------------------|------------------|------------------|
D|----(2)------(2)--|----(4)------(4)--|----(6)------(6)--|
A|------------------|------------------|------------------|
E|-0-0-0-0--0-0-0-0-|-2-2-2-2--2-2-2-2-|-4-4-4-4--4-4-4-5-|


G1:          G2:

G|------------------| |------------------|
D|------------------| |------------------|
A|------------------| |-----7--------4---|
E|- -5-5-0--5-0-5-7-| |- -5---5--5-7---7-|


H:

G|----(6)-------(6)--|----(4)-------(4)--|----(3)------(3)--|
D|-------------------|-------------------|------------------|
A|-4-4-4-4--4-\6-4-2-|(2)2-2-2--2-\4-2-1-|(1)1-1-1--1-1-1-1-|
E|-------------------|-------------------|------------------|

 |------------------|
 |------------------|
 |-0- - - --2- - - -|
 |------------------|


I:Guitar Solo

G|------------------|------------------|-----6- ------6- -|
D|-----2- ------2- -|-----2--------2- -|------------------|
A|------------------|------------------|-4- ------4-4-----|
E|-0- ------0-0-----|-0- ---0-- -0-----|------------------|


 |-----6--------6- -|-----7- ------7- -|-----7--------7- -|
 |------------------|------------------|------------------|
 |-4- ---4-- -4-----|-5- ------5-5-----|-5- ---5-- -5-----|
 |------------------|------------------|------------------|


E|-7- - --7-7-7-|-5- - --5-5-5-|-4- - --4-4-4-|-3- - --3-3-3-|


E|-2- - --2-2-2-|-2- - --2-2-2-|-2-2-2--2-2-2-|-2-2-2--2-2-2-|

Almost there ...

Sign in to get your own page with links to favourite songs and more. You are just one click away...

Login with Facebook Login with Google