Log in

One click and you are in

Login with Facebook Login with Google

Why sign up and log in

Guitar Tabs Explorer
Wolfgang Amadeus Mozart tabs for Vio che sapete

Vio Che Sapete tab by Wolfgang Amadeus Mozart

Wolfgang Amadeus Mozart tabs for Vio che sapete

Guitar tabs

----------------------------------------------------------------------------
	    Vio Che Sapete - Wolfgang Amaedus Mozart
----------------------------------------------------------------------------


Tabbed by: Dave S.
Tuning: Standard


A chord diagramE MajorE||----------------------|----------------------|--0---------------0---1-|
A chord diagramBB||--1-------------------|--3-------------------|------------1---3-------|
A chord diagramG+G||------------0----0----|------------0---------|-------0----------------|
A chord diagramD MajorD||-------2--------------|-------0---------0----|------------2-----------|
A chord diagramA augmentedA||--3-------------------|--2-------------------|--3---------------------|
A chord diagramE MajorE||----------------------|----------------------|------------------------|


----------------------|--0---------1----2----|--3-------0------------|
--3-------------------|----------------------|-------------1---------|
-----------------0----|-------0--------------|-------0---------------|
------------0---------|----------------------|-------------2---------|
-------2--------------|--3-------------------|--3---------------3----|
--3-------------------|----------------------|-----------------------|


-----------------0----|--1-------------------|--3----0----3----0----|
--3---------4---------|-----------------0----|----------------------|
-------0--------------|------------0---------|------------0---------|
----------------------|-------0--------------|----------------------|
--2-------------------|----------------------|--3-------------------|
----------------------|--3-------------------|----------------------|

-------1---------1----|----------------------0-|---------------------|
--3---------3---------|--1---------0---1-3-----|--1------------------|
----------------------|------------------------|-------0-------------|
--3---------0---------|-------2----------------|---------------------|
----------------------|------------------------|--3---------3--------|
----------------------|--3---------3-----------|---------------------|


----------------------|--0--2--3--0------------|-----------------------|
--3---------3----3----|--1-----------3---------|----------0--1----3----|
------------0---------|--0---------------------|--2--------------------|
-------0--------------|-------------------0----|-------0----------0----|
----------------------|------------------------|-----------------------|
--3-------------------|--------------3---------|--2----------2---------|


----------------------|--0---------2----2----|--3-------0------------|
--1----0--------------|----------------------|-------------0---------|
-----------------0----|-------0--------------|-------0----------0----|
------------0---------|-----------------1----|-------------2---------|
----------------------|--3---------2---------|-----------------------|
--3-------------------|----------------------|--0--------------------|


----------0------------|----------------------|-----------------3----|
--0----------3----2----|--3-------------------|--3---------3---------|
-------0---------------|----------------------|-------0--------------|
------------------2----|-------0---------0----|----------------------|
-------------0---------|------------3---------|--2-------------------|
--0--------------------|--2-------------------|----------------------|


--2-------------------|----------------------|----------------------|
-------3----1---------|--0--------------1----|--0-------------------|
-----------------2----|------------0---------|-------2---------2----|
--0---------0---------|-------0---------2----|--0----4---------4----|
----------------------|------------3---------|------------3---------|
----------------------|--3-------------------|----------------------|


---------------0--2--3--|--3--2--0---------------|----------------------|
--3---------3-----------|-----------3--1---------|----------------------|
-------0----0-----------|------------------------|--3---------2----0----|
------------------------|--0----------------0----|-------0--------------|
--2---------------------|------------------------|----------------------|
------------------------|------------------------|--3-------------------|


----------------------|----------------------|--1-------------------|
--3-------------------|--3---------3----3----|------------4---------|
------------2---------|----------------------|-------2---------2----|
-------0---------0----|-------3--------------|--3---------3---------|
----------------------|--1-------------------|----------------------|
--2-------------------|----------------------|----------------------|


----------------------|----------------------|--1---------1---------|
--4----1--------------|----------------------|-------3---------3----|
------------2---------|-------3--------------|----------------------|
--3--------------1----|--0---------3----0----|----------------------|
----------------------|--1-------------------|--1---------1---------|
----------------------|----------------------|----------------------|


----------------------|------------------------|----------------------|
--1----4----1----4----|------------3--1--------|----------------------|
------------0---------|--3------------------3--|--3-------------------|
--1-------------------|-------0----3-----3-----|-------0---------0----|
----------------------|------------------------|--1---------1---------|
----------------------|--1---------------------|----------------------|


----------------------|-----0--1--0------------|--1---------0---------|
--3---------3----3----|--3-----------3---------|-------0---------3----|
----------------------|-------------------2----|-------1---------1----|
-------3--------------|--0-----------0---------|--0-------------------|
--1-------------------|------------------------|----------------------|
----------------------|------------------------|------------0---------|


----------------------|--1---------0---------|--0-------------------|
----------------------|-------3---------4----|-------0----1---------|
--2----0--------------|-------2--------------|-------1---------2----|
------------3----2----|--0--------------4----|-----------------2----|
--0-------------------|----------------------|------------0---------|
----------------------|------------0---------|--0-------------------|


------------0----0----|------------------------|-------------------------|
--0--------------0----|---------------1--1--1--|--3--1--1-------1--1--1--|
-------2---------1----|--2---------------------|-------------------------|
--0-------------------|-------2----------------|--------2----------2-----|
----------------------|--0---------0-----------|--1----------1-----------|
------------0---------|------------------------|-------------------------|


-----------------------|--0----------------------|---------------0--0--0-|
------------3----3--3--|-----3--3-------3--3--3--|--0--------------------|
--2--------------------|-------------------------|-----------------------|
-------0---------0-----|--------0----------0-----|-------0---------------|
-----------------------|-------------------------|-----------------------|
--1---------1----------|--2----------2-----------|--3---------3----------|


--1--0--0----0----0--0--|------------1----1----|--1-------3--0---------|
--0----------0----------|--1----1----3---------|--0---------------1----|
--1----------1----------|--2---------2---------|--0---------------0----|
------------------------|--2---------0---------|-------0---------------|
------------------------|--0-------------------|-------------3---------|
--0----------0----------|----------------------|--3--------------------|


----------------------|----------------------|-----------------------|
--4---------3----1----|----------------------|--1--------------------|
-------2--------------|--0-------------------|------------0-------0--|
-------4--------------|-------3----2----0----|-------2---------0-----|
--3---------0---------|----------------------|--3--------------------|
----------------------|--3-------------------|------------3----------|


-----------------0----|--3----0----3----0----|-------1---------1----|
------------1---------|----------------------|--3---------3---------|
-------0--------------|------------0---------|----------------------|
--2-------------------|----------------------|--3---------0---------|
--3-------------------|--3-------------------|----------------------|
----------------------|----------------------|----------------------|


----------------------0-|---------------------||
--1---------0---1-3-----|--1------------------||
-------0----------------|-------0-------------||
------------------------|------------2--------||
--3---------------------|--3---------3--------||
------------3-----------|------------3--------||

| /  slide up
| \  slide down
| h  hammer-on
| p  pull-off
| ~  vibrato
| +  harmonic
| x  Mute note

Almost there ...

Sign in to get your own page with links to favourite songs and more. You are just one click away...

Login with Facebook Login with Google