Log in

One click and you are in

Login with Facebook Login with Google

Why sign up and log in

Guitar Tabs Explorer
Wolfgang Amadeus Mozart bass tabs for Rondo alla turca

Rondo Alla Turca bass tab by Wolfgang Amadeus Mozart

Wolfgang Amadeus Mozart bass tabs for Rondo alla turca

Bass tabs

Tuning: Standard (E A D G)

Difficulty: Intermediate

G|-----------------------------------9-----10--9--8--9------16--14--13--14--16--14--13--14--17-|
D|-9--7--6--7--10-----12--10--9--10------------------------------------------------------------|
A|---------------------------------------------------------------------------------------------|
E|---------------------------------------------------------------------------------------------|

G|-----14--17--16--14--12--14--16--14--12--14--16--14--12--------------------------------------|
D|---------------------------------------------------------16--14------------------------------|
A|---------------------------------------------------------------------------------------------|
E|---------------------------------------------------------------------------------------------|

G|-----------------------------------9-----10--9--8--9------16--14--13--14--16--14--13--14--17-|
D|-9--7--6--7--10-----12--10--9--10------------------------------------------------------------|
A|---------------------------------------------------------------------------------------------|
E|---------------------------------------------------------------------------------------------|

G|-----14--17--16--14--12--14--16--14--12--14--16--14--12--------------------------------------|
D|---------------------------------------------------------16--14------------------------------|
A|---------------------------------------------------------------------------------------------|
E|---------------------------------------------------------------------------------------------|

G|9--10--12--12--14--12--10--9----------9--10--12--12--14--12--10--9---------------------------|
D|-------------------------------12-----------------------------------12-----------------------|
A|---------------------------------------------------------------------------------------------|
E|---------------------------------------------------------------------------------------------|

G|--------9--9--10--9-----------------------9--9--10--9----------------------------------------|
D|10--12---------------12--10--9----10--12---------------12--10--9-----------------------------|
A|---------------------------------------------------------------------------------------------|
E|---------------------------------------------------------------------------------------------|

G|-----------------------------------9-----10--9--8--9------16--14--13--14--16--14--13--14--17-|
D|-9--7--6--7--10-----12--10--9--10------------------------------------------------------------|
A|---------------------------------------------------------------------------------------------|
E|---------------------------------------------------------------------------------------------|

G|---14--16--17--16--14--13--14--9--10---------------------------------------------------------|
D|--------------------------------------12--10--9--10--9---------------------------------------|
A|--------------------------------------------------------12-----------------------------------|
E|---------------------------------------------------------------------------------------------|

G|9--10--12--12--14--12--10--9----------9--10--12--12--14--12--10--9---------------------------|
D|-------------------------------12-----------------------------------12-----------------------|
A|---------------------------------------------------------------------------------------------|
E|---------------------------------------------------------------------------------------------|

G|--------9--9--10--9-----------------------9--9--10--9----------------------------------------|
D|10--12---------------12--10--9----10--12---------------12--10--9-----------------------------|
A|---------------------------------------------------------------------------------------------|
E|---------------------------------------------------------------------------------------------|

G|-----------------------------------9-----10--9--8--9------16--14--13--14--16--14--13--14--17-|
D|-9--7--6--7--10-----12--10--9--10------------------------------------------------------------|
A|---------------------------------------------------------------------------------------------|
E|---------------------------------------------------------------------------------------------|

G|---14--16--17--16--14--13--14--9--10---------------------------------------------------------|
D|--------------------------------------12--10--9--10--9---------------------------------------|
A|--------------------------------------------------------12-----------------------------------|
E|---------------------------------------------------------------------------------------------|

G|--------------------------------------------------------------------------------------------------|
D|--7--9--11--7--9--11--9--7--------------7--9--------7--9--11--7--9--11--9--7---------9---------7--|
A|----------------------------11--9--11--------11--7----------------------------11--9-----11--7-----|
E|--------------------------------------------------------------------------------------------------|

G|-------------------------------------------------------------------------------------------------------|
D|--11--12--14--11--12--14--------------11--12-----------11--12--14--11--12--14----------12--------------|
A|--------------------------14--12--14----------14--11---------------------------14--12------14--11--12--|
E|-------------------------------------------------------------------------------------------------------|

G|6--7--6--4-----4-----------------------------------------------------------------4--6--5--6--5--|
D|------------7-----7--6--4--7--6--4--3--4--6--3--------3-----4--3--4--6--7--6--7-----------------|
A|------------------------------------------------4--6-----4--------------------------------------|
E|------------------------------------------------------------------------------------------------|

G|6--7--6--4-----4------------------------------------------------------------------------|
D|------------7-----7--6--4--7--6--4--------6---------------------------------------------|
A|------------------------------------7--9-----7--4--6--7--4--6--7--9--6------------------|
E|------------------------------------------------------------------------8--9--11--8--9--|

G|9--7--6-----------6--7--9--11--13--14--14--13--11--------9--7--6-----------6--7--9--11--13--14--15/16--|
D|---------9--7--9-----------------------------------14-------------9--7--9------------------------------|
A|-------------------------------------------------------------------------------------------------------|
E|-------------------------------------------------------------------------------------------------------|

G|9--7--6------------6--7--9--11--13--14--14--13--11-------9--7--6-----6--9-----9-----7-----------------|
D|----------9--7--9-----------------------------------14------------9--------7-----9-----6--9--7--------|
A|------------------------------------------------------------------------------------------------------|
E|------------------------------------------------------------------------------------------------------|

G|6--7--6--4-----4-----------------------------------------------------------------4--|
D|------------7-----7--6--4--7--6--4--3--4--6--3--------3-----4--3--4--6--7--6--7-----|
A|------------------------------------------------4--6-----4--------------------------|
E|------------------------------------------------------------------------------------|

G|6--5--6--5--6--5--6--5------7--6--7--6--7--6--7--6--------------------------6-----10--11--13--10--11----|
D|------------------------8---------------------------9--7--6--7--9--6--7--9-----7------------------------|
A|--------------------------------------------------------------------------------------------------------|
E|--------------------------------------------------------------------------------------------------------|

G|6--6---------7--6--4--6--7--6--4--6--7---6--6--6--6-----9---6--6--7--6--4--6--7--6--4--6--7---6--9--9---|
D|------7--7-------------------------------------------9--------------------------------------------------|
A|--------------------------------------------------------------------------------------------------------|
E|--------------------------------------------------------------------------------------------------------|

G|9--9-----------------7--6--4--6--7--6--4--6--7---6-------------------6-----9-----6-----6-----9-----------|
D|------7--7--7--7--7---------------------------------9--9--9--9----7-----7-----7-----7-----7-----7--7--7--|
A|---------------------------------------------------------------------------------------------------------|
E|---------------------------------------------------------------------------------------------------------|


************************************

| / Slide up

************************************

Almost there ...

Sign in to get your own page with links to favourite songs and more. You are just one click away...

Login with Facebook Login with Google