Log in

One click and you are in

Login with Facebook Login with Google

Why sign up and log in

Guitar Tabs Explorer
Wolfgang Amadeus Mozart tabs for Quartet 15

Guitar tabs

Wolfgang Amadeus Mozart
Quartet No.15 in A chord diagramD MajorD Minor
letostak@netcom.com


|---------|-------------------------|-------------------------17--17-------|
|---------|-15---14-15--18---17-15--|-14---15-17---------------------------|
|--14-----|-------------------------|--------------14----------------------|
|---------|-------------------------|--------------------------------------|
|---------|-------------------------|--------------------------------------|
|---------|-------------------------|--------------------------------------|
|-17----17-17-17-----17-17-|-17---------------|---------15---15------------|
|--------------------------|-------17---------|-17---18-----------18-17----|
|--------------------------|--------------14--|----------------------------|
|--------------------------|------------------|----------------------------|
|--------------------------|------------------|----------------------------|
|--------------------------|------------------|----------------------------|


|-17---------------------22-22-|-22-----22-22-22-----22-22-|-22------------|
|-------18-15---15-------------|---------------------------|---------------|
|------------------------------|---------------------------|--------19-----|
|------------------------------|---------------------------|---------------|
|------------------------------|---------------------------|---------------|
|------------------------------|---------------------------|---------------|


|-----------|-------------------------17----------22-|
|-----------|-------------18----------------18-------|
|-----------|-19----------------19-------------------|
|-19--------|-------19-------------------------------|
|-----------|----------------------------------------|
|-----------|----------------------------------------|

Almost there ...

Sign in to get your own page with links to favourite songs and more. You are just one click away...

Login with Facebook Login with Google