Log in

One click and you are in

Login with Facebook Login with Google

Why sign up and log in

Guitar Tabs Explorer
Wolfgang Amadeus Mozart tabs for Piano concerto no 21 in c major

Piano Concerto No 21 In C Major tab by Wolfgang Amadeus Mozart

Wolfgang Amadeus Mozart tabs for Piano concerto no 21 in c major

Guitar tabs

----------------------------------------------------------------------------
	Piano Concerto No. 21 in A chord diagramC majorC Major - Wolfgang Amadeus Mozart
----------------------------------------------------------------------------


Tabbed by: Dave S.
Tuning: (Down 1 Step) Drop A chord diagramC majorC


A chord diagramD MajorD||--------------------2-----------------|
A chord diagramA augmentedA||--3--------3-----------3--3--------3--|
A chord diagramFF||-----2--2--------2-----2--2-----2-----|
A chord diagramC majorC||-----4--4-----0-----0--------0--------|
A chord diagramG+G||--------------------------------------|
A chord diagramC majorC||--0--------4--------------------------|


--5--------------------------3p2p0---|----------0--------------------------|
-----7--7-----7--7-----7--7--------3-|-4-----------2--2-----2--2-----2--2--|
-----7--7-----7--7-----7--7----------|----0--0-----0--0-----0--0-----0--0--|
--------------------0----------------|----2--2--------------------2--------|
-----------0-------------------------|-0--------0--------4-----------------|
--0----------------------------------|-------------------------------------|


-----------------------------0--------|--3-----------------3--7--5--3--|
--------------------2-----------2--2--|-----2--2--2--2--2--------------|
--2--------------------0--0-----0--0--|-----0--0--0--0--0--------------|
-----2--2-----2--2-----2--2-----------|--------------------2-----------|
--0--------4--------0--------0--------|--0-----------------------0-----|
--------------------------------------|--------------------------------|

--1-----2--2--------------------------|--5---------------------------------|
--------------3--3-----3--3-----3--3--|-----4--4--4--4--4-----4--4--4--4---|
-----2--------2--2-----2--2-----2--2--|-----5--5--5--5--5-----5--5--5--5---|
--0--------------------------0--------|------------------------------------|
--------------------0-----------------|------------------------------------|
-----------0--------------------------|--4-----------------4--------------4|


--------------------------------------|--7---------------------------------|
-----0--------0--0--0--0--0--0--0--0--|-----6--6--6--6--6-----6--6--6--6---|
-----0--------0--0--0--0--0--0--0--0--|-----7--7--7--7--7-----7--7--7--7---|
--------------------------------------|------------------------------------|
--0-----------------------------------|------------------------------------|
--------5--5--------------------------|--6-----------------6--------------6|


-----------5-----------------3p2p0---|
-----7--7-----7--7-----7--7--------3-|
-----7--7-----7--7-----7--7----------|
-----------0-------------------------|
--0-----------------0----------------|
-------------------------------------|


---------------------------------------------|
--3--2---3---2---3---2--3---2---3---2-----2--|
--2---------------------2--------------4-----|
--2---------------------2--------------------|
--0---------------------0--------------------|
---------------------------------------------|


--------------------2----------------|--3----------------------------------|
--3--------------------3--3--3--3--3-|-----2--2--2--2--2-------------------|
-----2--2--2--2--2-----2--2--2--2--2-|-----3--3--3--3--3--3----------------|
-----4--4--4--4--4--0----------------|-----------------------4--4--4--4--4-|
-------------------------------------|-------------------------------------|
--0----------------------------------|--2-----------------4----------------|


--2--------2-----------------0--------|--------------------------0--2--|
-----3--3-----3--3-----3--------2-----|--0-----2--3-----0-----3--------|
-----4--4-----4--4--------2--------3--|--------------------------------|
-----------4--------------------------|-----0--------0-----------------|
--2-----------------2-----------------|--2--------2--------2-----------|
-----------------------------4--------|--------------------------------|


--3--------3----------0-0-------0---|-----------------------------2--|
-----2--2-----2--2--------2-2-------|--------------------------3-----|
-----0--0-----0--0------------2---0-|--2-----0--------------2--------|
-----------2------------------------|-----------4-----0--------------|
--0-----------------0---------------|-----0--------0-----------------|
------------------------------------|--0--------0--------0-----------|

A chord diagramE MajorE
--5-----0--0--------------------------|--------------------------------|
--------------2--2-----2--2--3-----2--|-----------0-----------0--0--0--|
-----0--------0--0-----0--0-----0-----|--3-----------------------------|
--------------------2-----------------|--------0--------0--------------|
--0--------0-----------------0--------|-----2--------2-----2-----------|
--------------------------------------|--0--------0--------------------|


-----------------0--2-----4--5-------|----------0-----------------0-------|
--0-----2--4-----------0-------------|-------------0--0--1-----------1--1-|
--------------4--------------------2-|--2p1--------1--1-----2--2-----2--2-|
-----------4--------1----------------|------4p2-------------2--2----------|
-----2--------------------------2----|-------------------0--------3-------|
--1----------------------------------|--2---------------------------------|


-------------------------------------|-0----------------------------------|
--6--------------------0-----0--1--3-|----1--1--1--1--1--------------0--1-|
-----4--4--4--4--4--------3----------|----0--0--0--0--0-----2--1--2-------|
-----5--5--5--5--5-------------------|------------------------------------|
-------------------------------------|------------------------------------|
--5-----------------3----------------|-2-----------------3----------------|


-----------1-------------------------|------------------------------------|
--3-----------0--0-----------------0-|-1----------------------------------|
-----1--1-----1--1-----1-----1--2----|----2--2--2--2--2--2-----------1--2-|
-----3--3--0--------------4----------|----1--1--1--1--1--1--4--3--4-------|
-------------------------------------|------------------------------------|
--2-----------------2----------------|-2----------------------------------|


--------------------------------------|--------------------4--2--0-----|
--0-----------------0-----------------|-----------------------------3--|
-----1--1--1--1--1-----------------1--|--2--------------2--------------|
-----2--2--3--3--3-----2--1--2--4-----|--------2-----2-----0-----------|
--------------------------------------|-----0-----4--------------2-----|
--2-----------------2-----------------|--------------------------------|


-----------------------------0-------|------------------------------------|
--2-----0--0-----------------------0-|-3--------2-----------------------0-|
-----------------2--------2-----1----|-------1--------2--------2----------|
-----2--------2--------2-------------|----2--------2--------2--------0----|
-------------------------------------|----------0--------0--------2-------|
--2--------2--------2--------2-------|-2----------------------------------|


--5-----------------4--2--0-----|-----------------------------0--------|
--------2--------2-----------3--|--2-----0--0-----------------------0--|
-----2--------2-----------------|-----------------2--------2-----1-----|
--------------------0-----------|-----2--------2--------2--------------|
--0--------0--------------2-----|--------------------------------------|
--------------------------------|--2--------2--------2--------2--------|


--------------------0--------||
--------------------2--------||
--2--------------2--2--------||
-----2--------2--------------||
--0-----0--4--------0--------||
-----------------------------||

| /  slide up
| \  slide down
| h  hammer-on
| p  pull-off
| ~  vibrato
| +  harmonic
| x  Mute note

Almost there ...

Sign in to get your own page with links to favourite songs and more. You are just one click away...

Login with Facebook Login with Google