Log in

One click and you are in

Login with Facebook Login with Google

Why sign up and log in

Guitar Tabs Explorer
Wolfgang Amadeus Mozart tabs for Air from magic flute

Air From Magic Flute tab by Wolfgang Amadeus Mozart

Wolfgang Amadeus Mozart tabs for Air from magic flute

Guitar tabs

This is Air from Magic Flute ':)
If you have Mozart in your heart ...
Enjoy!!!
e|-2--0--|------------0--------------|-0----2----0-----0-----|-----------
A chord diagramBB|-------|-3-----3----------3--2--3--|-2----3----2--------2--|-----------
A chord diagramG+G|-------|-2-------------------------|-2----2----2-----------|-2---------
A chord diagramD MajorD|-------|-0----------0--------------|-----------------------|-----------
A chord diagramA augmentedA|-------|---------------------------|-0----0----0-----------|-0---------
A chord diagramE MajorE|-------|---------------------------|-----------------------|-----------
1       2                           3                       4
--------5----------5--|-2----0-------------2--|-2-----0-----0--2--------
----------------------|-3----2----3-----3-----|----------3--------------
-----2----------------|-2----2----2-----------|-------------------------
----------------------|-0---------0-----------|-------------------------
0-------0-----0-------|------0----------------|-0--------------0--------
----------------------|-----------------------|-------------------------
                      5                       6


0-----0--|-0----2----0-----0----|-5-----5--0-----0--|-------------------
---3-----|-2----3----2----------|-------------------|-2----0------------
---------|-2----2----2----------|-6-----6--1-----1--|-2----1----2-------
---------|----------------------|-------------------|------2------------
---------|-0----0----0----------|-0-----------------|-0---------0-------
---------|----------------------|----------0--------|-------------------
         7                      8                   9


------|--0-----0----2-----0-----0--|--2----0----------5----|------------
---2--|--2-----2-------------3-----|--3----2----3----------|--2-----2---
2-----|--2-----2-------------------|--2----2----2----------|--2-----2---
------|----------------------------|--0---------0----------|------------
------|--0----------0--------------|-------0---------------|--0---------
------|----------------------------|-----------------------|------------
      10                           11                      12

0--------------|--0----2----0----------|-----------0--2--3--5-----3-----
------3--2--3--|--2----3----2-----2----|--3-----3-----------------2-----
---------------|--2----2----2-----0----|--2-----------------------------
---------------|-----------------------|--0-----------------------------
0--------------|--0----0----0----------|--------------------0-----------
---------------|-----------------------|--------------------------------
               13                      14


|--2--------0--2--3--5--------0--|--2-----2--3-----2--0--2--|--3--------
|--3-----3-----------------3-----|--------------------------|--0--------
|--------------------------------|--------------------------|--0--------
|--0-----------------0-----------|--0--------0--------------|--0--------
|--------------------------------|--------------------------|-----------
|--------------------------------|--------------------------|-----------
15                               16                         17


5----7-----3--0--|--------------------------|--------2--0---------------
-----0-----------|--2-----2--3-----2--0--2--|--3-----------2--3-----3---
-----0-----------|--2-----2-----------------|---------------------------
-----0-----------|--------------------------|-----------------0---------
-----------------|--0--------0--------------|--0------------------------
-----------------|--------------------------|---------------------------
                 18                         19


0--2--3--|--5-----2----2--------0--2--3--|--5----------------------|----
---------|--------2----3-----3-----------|--------2----3-----3-----|----
---------|-------------------------------|--------0----2--------2--|----
---------|-------------0-----------------|-------------0-----------|----
---------|--0----------------------------|--0----------------------|----
---------|-------------------------------|-------------------------|----
         20                              21                        22


2--------5--5-----3--2--0--|-------2------------------------------------|e
3--------------------------|--3----3----3-------------------------------|A chord diagramBB
------2--------------------|--2----2----2-------------------------------|A chord diagramG+G
---------------------------|------------0-------------------------------|A chord diagramD MajorD
0-----------0--------------|--0----0------------------------------------|A chord diagramA augmentedA
---------------------------|--------------------------------------------|A chord diagramE MajorE
                           23
There's a Simpson episode in which Mozart(played by Bart)says "Eat my
pantaloons!"
Nannerl is played by Lisa, and Homer is their dad, Leopold.
Mozart's nickname used by his family was "Wolferle".
Beethoven(Nelson)is playing Haydn's Kaiserquartett.
#==(o)

Almost there ...

Sign in to get your own page with links to favourite songs and more. You are just one click away...

Login with Facebook Login with Google