Log in

One click and you are in

Login with Facebook Login with Google

Why sign up and log in

Guitar Tabs Explorer
Mozart Johann Georg Leopold tabs for Minuet in a 9

Minuet In A 9 tab by Mozart Johann Georg Leopold

Mozart Johann Georg Leopold tabs for Minuet in a 9

Guitar tabs

Minuet in A chord diagramA augmentedA (ref. IX) from Nannerl's Notebook.
Arranged and transcribed by Stanislaw Alam. 'All my own work'
*correct
version ":)

e|-0-------|-0-------5----------|-----------------------|---------7------
A chord diagramBB|---------|---------------2----|-2-------3-----3-------|-3--------------
A chord diagramG+G|---------|--------------------|-----------------------|----------------
A chord diagramD MajorD|---------|--------------------|-----------------------|----------------
A chord diagramA augmentedA|-0----2--|-4-------------0----|-2-------------2----0--|----------------
A chord diagramE MajorE|---------|--------------------|-----------------------|-4--------------
1         2                    3                       4

A chord diagramE5E5
-----|---------------0-------|-0----------2----------|------------------
0----|-0-------2-------------|-------4---------------|------------------
-----|-----------------------|------------------2----|-2-------1--------
-----|-----------------------|-----------------------|------------------
-----|-0------------------0--|-2---------------------|------------------
0----|---------------4-------|-----------------------|-0----------------
     5                       6                       7


0-------|-0----------2-----5----|-5-----4-------------------|-----------
--------|-------4---------------|---------------------------|-----------
--------|-----------------------|-----------------------1---|--1--------
--------|-----------------------|-------------2-----4-------|-----------
-----0--|-2---------------------|---------------------------|--0--------
4-------|-----------------------|-0-----------4-------------|-----------
        8                       9                           10


--------------------------|--------------0-------|--0-------5-----------
--------------------------|----------------------|----------------2-----
--------------------------|----------------------|----------------------
4----2-----2-----1-----1--|--1-----2-------------|----------------------
-----2--------------4-----|--------------0----2--|--4-------------0-----
--------------------------|--0-------------------|----------------------
                          11                     12

|------------------------|----------7----------|----------------0-------
|--2-------3-----3-------|--3-------------0----|--0-------2-------------
|------------------------|---------------------|------------------------
|------------------------|---------------------|------------------------
|--2-------------2----0--|---------------------|--0---------------------
|------------------------|--4-------------0----|----------------4-------
13                       14                    15


---|--0----------2----------|----------------0-------|--0---------------
---|--------4---------------|------------------------|--------4---------
---|-------------------2----|--2-------1-------------|------------------
---|------------------------|------------------------|------------------
0--|--2---------------------|---------------------0--|--2---------------
---|------------------------|--0-------------4-------|------------------
   16                       17                       18


2-----5----|--5-----4-------------------|-------------------------------
-----------|----------------------------|-------------------------------
-----------|------------------------1---|--1----------------------------
-----------|--------------1-----4-------|--------4----2-----2-----1-----
-----------|----------------------------|--0----------2-----------------
-----------|--0-----------4-------------|-------------------------------
           19                           20


------|--------------0----|--0-------------------------|----------------
------|-------------------|----------------------------|----------------
------|-------------------|--------2-----2----0-----0--|--0-------------
---1--|--1-----2----------|----------------------4-----|--------4-------
4-----|-------------------|----------------------------|----------------
------|--0----------------|----------------------------|----------------
      21                  22                           23


2-----0--------|--------2----------|--------------0-------|--0----------
---------3--2--|--0----------------|----------------------|-------------
---------------|--------------2----|--2-----1-------------|-------------
---------------|-------------------|----------------------|-------------
---------------|-------------------|--------------0----2--|--4----------
---------------|-------------------|--0-------------------|-------------
               24                  25                     26


5----------|------------------------|----------7----------|-------------
------2----|--2-------3-----3-------|--3-------------0----|--0----------
-----------|------------------------|---------------------|-------------
-----------|------------------------|---------------------|-------------
------0----|--2-------------2----0--|---------------------|--0----------
-----------|------------------------|--4-------------0----|-------------
           27                       28                    29


------5-------|------------------------|----------------------|---------
2-------------|------------------------|----------------------|---------
--------------|------------------------|--------6-------------|---------
--------------|--19----18---21----12---|--12----------7-------|---------
--------------|------------------------|--0-------------------|---------
--------------|--0----------4-----0----|----------------------|--17-----
              30                       31                     32

                   A chord diagramD5D5
----------------|----------------------------|--------------------------
-----0----------|--------------------0---2---|--2-----0-----------------
----------------|--------------2-------------|-------------2-----2------
-----------0----|--0-------------------------|--------------------------
----------------|--0-----4-------------------|--------------------------
16---4-----0----|----------------------------|-------------0------------
                33                           34


---------|----------------0----|--0-------------------------|-----------
---------|---------------------|----------------------------|-----------
1-----1--|--1-------2----------|--------2-----2----0-----0--|--0--------
---4-----|---------------------|----------------------4-----|-----------
---------|---------------------|----------------------------|-----------
---------|---------------------|----------------------------|-----------
         35                    36                           37


------2-----0--------|--------2----------|--------------0-------|-------
---------------3--2--|--0----------------|----------------------|-------
---------------------|--------------2----|--2-----1-------------|-------
4--------------------|-------------------|----------------------|-------
---------------------|-------------------|--------------0----2--|-------
---------------------|-------------------|--0-------------------|-------
                     38                  39                     40

                                                             A chord diagramE5E5
0-------5----------|------------------------|----------7----------|-----
--------------2----|--2-------3-----3-------|--3-------------0----|-----
-------------------|------------------------|---------------------|-----
-------------------|------------------------|---------------------|-----
4-------------0----|--2-------------2----0--|---------------------|-----
-------------------|------------------------|--4-------------0----|-----
                   41                       42                    43


--------------5-------|------------------------|------------------------
0-------2-------------|------------------------|------------------------
----------------------|------------------------|--------6---------------
----------------------|--19----18---21----12---|--12----------7---------
0---------------------|------------------------|--0---------------------
----------------------|--0----------4-----0----|------------------------
                      44                       45


|------------------------|----------------------------|-----------------
|-------------0----------|--------------------0---2---|--2-----0--------
|------------------------|--------------2-------------|-----------------
|-------------------0----|--0-------------------------|-----------------
|------------------------|--0-----4-------------------|-----------------
|--17----16---4-----0----|----------------------------|-----------------
46                       47                           48


---------------------|--------------------------------------------------e
---------------------|--------------------------------------------------B
2-----2-----1-----1--|--1-------2---------------------------------------G
---------------4-----|--------------------------------------------------D
---------------------|--------------------------------------------------A
0--------------------|--------------------------------------------------E
                     49

Almost there ...

Sign in to get your own page with links to favourite songs and more. You are just one click away...

Login with Facebook Login with Google