Log in

One click and you are in

Login with Facebook Login with Google

Why sign up and log in

Guitar Tabs Explorer
Mourning Beloveth tabs for Sinistra

Guitar tabs

Tune Down 1 & 1/2 Steps
                                    A chord diagramC#C# A chord diagramF#F# A chord diagramBB A chord diagramE MajorE

                                  Tempo = 55 BPM
                               Time Signature = 3/4

                          -----------------------------
                                 Transcribed by

                                 PADDY MCMULLAN
                           stinkypoohpants@yahoo.co.uk

                                   Version 1.0

                             -----------------------

                             Tablature Symbols Used:


None




Riff 1: Play through according to the figures and their respective repititions


*Enter on bar 5 of the song*


[Fig. 1] x 1

||---------------|----------------|---------------|---------------||
||---------------|--10------------|---------------|---------------||
||--7------------|----------------|--6------------|--5------------||
||---------------|----------------|---------------|---------------||


[Fig. 2] x 2

||---------------|---------------|---------------|---------------||
||---------------|---------------|---------------|---------------||
||--7------------|---------------|--6------------|--5------------||
||---------------|--8------------|---------------|---------------||


-----------------
Play [Fig. 1] x 2
-----------------

-----------------
Play [Fig. 2] x 1
-----------------

-----------------
Play [Fig. 1] x 2
-----------------

-----------------
Play [Fig. 2] x 1
-----------------

-----------------
Play [Fig. 1] x 1
-----------------

-----------------
Play [Fig. 2] x 1
-----------------

-----------------
Play [Fig. 1] x 2
-----------------



End


Tab summary:        Riff 1
                            Fig. 1 x 1
                            Fig. 2 x 2
                            Fig. 1 x 2
                            Fig. 2 x 1
                            Fig. 1 x 2
                            Fig. 2 x 1
                            Fig. 1 x 1
                            Fig. 2 x 1
                            Fig. 1 x 2

                    END

Almost there ...

Sign in to get your own page with links to favourite songs and more. You are just one click away...

Login with Facebook Login with Google