Log in

One click and you are in

Login with Facebook Login with Google

Why sign up and log in

Guitar Tabs Explorer
Mourning Beloveth tabs for Narcissistic funeral

Narcissistic Funeral tab by Mourning Beloveth

Mourning Beloveth tabs for Narcissistic funeral

Guitar tabs

Tune Down 1 & 1/2 Steps
                                  A chord diagramC#C# A chord diagramF#F# A chord diagramBB A chord diagramE MajorE A chord diagramG#G# A chord diagramC#C#

                                  Tempo = 70 BPM
                               Time Signature = 3/4

                          -----------------------------
                                 Transcribed by

                                 PADDY MCMULLAN
                           stinkypoohpants@yahoo.co.uk

                                   Version 1.0
                             -----------------------

                             Tablature Symbols Used:


 P.M...    -  Palm Mute
 p         -  Pull-Off
 ~~        -  Vibrato
 h         -  Hammer-On
 (/)       -  Legato Slide (Blank space indicates length of slide)
          -  Slide Down to/Down From (Blank space indicates length of slide)
 /         -  Slide Up To/Up From (Blank space indicates length of slide)
 ( )       -  Ghost Note/Tied Note/Implied Note
 |__3__|   -  Triplet Notes




Intro: Guitar 3 with clean tone (Play twice)


*Let notes ring wherever possible*

||------------------|--------------------|----------------|----------------| |
||------------------|--------------------|----------------|----------------| |
||-----------4------|-----------4--------|----------------|----------------|*|
||--------5---------|--------5------(5)-|---------2------|---------4------|*|
||-----7------------|-----7--------------|--3-------------|--2-------------| |
||--0---------------|--0-----------------|----------------|----------------| |




Riff 1a: Guitar 1 with heavy distortion (Play once through)


Bar 1
||--------------------|--------------------|---------------|-------------------|
||--------------------|--------------------|---------------|-------------------|
||--------------------|--------------------|---------------|-------------------|
||--------(5/ 9)------|--------(5/ 9)------|---------------|-------------------|
||-----7--------------|-----7--------------|---------------|----------/7----7--|
||--0-----------------|--0-----------------|--8------------|--(8)--------------|
   P.M                  ...

Bar 5
|--------------------|--------------------|---------------|----------------|
|--------------------|--------------------|---------------|----------------|
|--------------------|--------------------|---------------|----------------|
|--------(5/ 9)------|--------(5/ 9)------|---------------|----------------|
|-----7--------------|-----7--------------|--7------------|-----9----------|
|--0-----------------|--0-----------------|--8------------|--7-------------|
  ...                  ...

Bar 9
|--------------------|--------------------|---------------|-------------------|
|--------------------|--------------------|---------------|-------------------|
|--------------------|--------------------|---------------|-------------------|
|--------(5/ 9)------|--------(5/ 9)------|---------------|-------------------|
|-----7--------------|-----7--------------|---------------|----------/7----7--|
|--0-----------------|--0-----------------|--8------------|--(8)--------------|
  P.M                  ...

Bar 13
|--------------------|--------------------|---------------|----------------|
|--------------------|--------------------|---------------|----------------|
|--------------------|--------------------|---------------|----------------|
|--------(5/ 9)------|--------(5/ 9)------|---------------|----------------|
|-----7--------------|-----7--------------|--7------------|-----9----------|
|--0-----------------|--0-----------------|--8------------|--7-------------|
  ...                  ...

Bar 17
|--------------------|--------------------|--------------|--------------------|
|--------------------|--------------------|--------------|--------------------|
|--------------------|--------------------|--------------|--------------------|
|--------(5/ 9)------|--------(5/ 9)------|--------------|-----------7--5--4--|
|-----7--------------|-----7--------------|--------7-----|-----9--------------|
|--0-----------------|--0-----------------|--8-----------|--7-----7-----------|
  ...                  ...

Bar 21
|--------------------|--------------------|----------------|------------------|
|--------------------|--------------------|----------------|------------------|
|--------------------|--------------------|----------------|------------------|
|--------(5/ 9)------|--------(5/ 9)------|----------------|---------7--5--4--|
|-----7--------------|-----7--------------|--10------------|--9---------------|
|--0-----------------|--0-----------------|--8-------------|--7---------------|
  ...                  ...

Bar 25
|--------------------|--------------------|--------------|--------------------|
|--------------------|--------------------|--------------|--------------------|
|--------------------|--------------------|--------------|--------------------|
|--------(5/ 9)------|--------(5/ 9)------|--------------|-----------7--5--4--|
|-----7--------------|-----7--------------|--10----------|-----9--------------|
|--0-----------------|--0-----------------|--8-----------|--7-----7-----------|
  ...                  ...

Bar 29
|--------------------|--------------------|----------------|------------------|
|--------------------|--------------------|----------------|------------------|
|--------------------|--------------------|----------------|------------------|
|--------(5/ 9)------|--------(5/ 9)------|----------------|---------7--5--4--|
|-----7--------------|-----7--------------|--10------------|--9---------------|
|--0-----------------|--0-----------------|--8-------------|--7---------------|
  ...                  ...

Bar 33
|--------------------|--------------------|---------------|------------------|
|--------------------|--------------------|---------------|------------------|
|--------------------|--------------------|---------------|------------------|
|--------(5/ 9)------|--------(5/ 9)------|---------------|---------7--5--4--|
|-----7--------------|-----7--------------|--7------------|--9---------------|
|--0-----------------|--0-----------------|--8------------|--7---------------|
  ...                  ...

Bar 37
|--------------------|--------------------|---------------|------------------||
|--------------------|--------------------|---------------|------------------||
|--------------------|--------------------|---------------|------------------||
|--------(5/ 9)------|--------(5/ 9)------|---------------|---------7--5--4--||
|-----7--------------|-----7--------------|--7------------|--9---------------||
|--0-----------------|--0-----------------|--8------------|--7---------------||
  ...                  ...




Riff 1b: Guitar 2 with heavy distortion (Play once through)


Bar 1
||----------------|-------------------|---------------|-------------------|
||----------------|-------------------|---------------|-------------------|
||----------------|-------------------|---------------|-------------------|
||--2----------2--|--2----------------|---------------|-------------------|
||--2----------2--|--2-----/10----10--|---------------|----------/7----7--|
||--0----------0--|--0----------------|--8------------|--(8)--------------|
              ...   ...
Bar 5
|---------------|-------------------|---------------|-------------------|
|---------------|-------------------|---------------|-------------------|
|---------------|-------------------|---------------|-------------------|
|---------------|-------------------|---------------|-------------------|
|---------------|----------/5----5--|--7~~----------|--9--------9-------|
|--7------------|--(7)--------------|---------------|-------------0-12-|
                                                                ....
Bar 9
|----------------|-------------------|---------------|-------------------|
|----------------|-------------------|---------------|-------------------|
|----------------|-------------------|---------------|-------------------|
|--2----------2--|--2----------------|---------------|-------------------|
|--2----------2--|--2-----/10----10--|---------------|----------/7----7--|
|--0----------0--|--0----------------|--8------------|--(8)--------------|

Bar 13
|---------------|-------------------|---------------|-----------------|
|---------------|-------------------|---------------|-----------------|
|---------------|-------------------|---------------|-----------------|
|---------------|-------------------|---------------|-----------------|
|---------------|----------/5----5--|--7~~----------|--9--------------|
|--7------------|--(7)--------------|---------------|-------------12 |

Bar 17                                  // Let notes ring \
|--------------------|------------------|------------------|-------------------|
|--------------------|------------------|------------------|-------------------|
|--------------------|------------------|----------0-------|-------------------|
|-----------5--------|--4----4--2----5--|-----2---------2--|-----4-----7--5--4-|
|-----2--------2-----|------------------|--3---------------|--2-----2----------|
|--0-----0--------0--|------------------|------------------|-------------------|

Bar 21                                  // Let notes ring \
|--------------------|------------------|-------------------|
|--------------------|------------------|--------1----------|
|--------------------|------------------|-------------0-----|
|-----------5--------|--4----4--2----5--|-----2-------------|
|-----2--------2-----|------------------|--3-------------3--|
|--0-----0--------0--|------------------|-------------------|

Bar 24
|--------------------|--------------------|------------------|
|--------------------|--------------------|------------------|
|--------------------|--------------------|------------------|
|-----4-----7--5-----|-----------5--------|--4----4--2----5--|
|--2-----2--------2--|-----2--------2-----|------------------|
|--------------------|--0-----0--------0--|------------------|

Bar 27
// Let notes ring \
|-------------------|--------------------|--------------------|
|-------------------|--------------------|--------------------|
|----------0------0-|--------------------|--------------------|
|-----2---------2---|-----4-----7--5--4--|-----------5--------|
|--3----------------|--2-----2-----------|-----2--------2-----|
|-------------------|--------------------|--0-----0--------0--|

Bar 30              // Let notes ring \
|------------------|-------------------|--------------------|
|------------------|--------1----------|-----------0--------|
|------------------|-------------0-----|--------------------|
|--4----4--2----5--|-----2-------------|-----4--------5--4--|
|------------------|--3-------------3--|--2-----2-----2-----|
|------------------|-------------------|--------------------|

Bar 33                                  // Let notes ring \
|--------------------|------------------|-------------------|
|--------------------|------------------|-------------------|
|--------------------|------------------|----------0--------|
|-----------5--------|--4----4--2----5--|-----2-------2-----|
|-----2--------2-----|------------------|--3-------------3--|
|--0-----0--------0--|------------------|-------------------|

Bar 36
|--------------------|--------------------|------------------|
|--------------------|--------------------|------------------|
|--------------------|--------------------|------------------|
|-----4-----7--5-----|-----------5--------|--4----4--2----5--|
|--2-----2--------2--|-----2--------2-----|------------------|
|--------------------|--0-----0--------0--|------------------|

Bar 39
// Let notes ring \
|-------------------|--------------------||
|--------1----------|-----------0--------||
|-------------0-----|--------------------||
|-----2-------------|-----4--------4--4--||
|--3-------------3--|--2-----2-----2--2--||
|-------------------|--------------------||




Riff 2a: Guitar 1 (Play once through)


Bar 1
||-------------------|------------|-------------|--------------------|
||-------------------|------------|-------------|--------------------|
||-------------------|------------|-------------|--------------------|
||-/9--10----7--9----|------------|-------------|--------------------|
||-------------------|--7---------|--12---------|--------------------|
||-------------------|------------|--10---------|--5--5----3--3--0-0-|
                                                                 ...

Bar 5                                         // Let notes ring \
|------------------------|--------------------|-----------------|
|------------------------|--------------------|-----------------|
|------------------------|--------------------|-----------------|
|------------------------|--------------------|-----------------|
|------------------------|--------------------|-----7-----------|
|--12--12----10--10--0-0-|--5--5--5--3--3--0--|--8---------8----|
             ..      ...            ...

Bar 8
//          Let notes ring             \
|----------------|-----------------------|-------------|-------------------|
|----------------|-----------------------|-------------|-------------------|
|----------------|-----------------------|-------------|-------------------|
|----------------|-----------------------|-------------|-/9--10----7--9----|
|--7-------------|------9----9---9---12--|--9----------|-------------------|
|--8--------8----|--10-------10--10------|--10---------|-------------------|

Bar 12
|------------|-------------|---------------------|------------------------|
|------------|-------------|---------------------|------------------------|
|------------|-------------|---------------------|------------------------|
|------------|-------------|---------------------|------------------------|
|--7---------|--12---------|---------------------|------------------------|
|------------|--10---------|--5--5--5--3--3--0-0-|--12--12----10--10--0-0-|
                                      ...    ...              ..      ...

Bar 16                //                 Let notes ring                     \
|---------------------|--------------|---------------|-----------------------|
|---------------------|--------------|---------------|-----------------------|
|---------------------|--------------|---------------|-----------------------|
|---------------------|--------------|---------------|-----------------------|
|---------------------|-----7--------|--(7)------7---|------9----9---9---10--|
|--5--5--5--3--3--8-8-|--8-----------|--(8)------8---|--10-------10--10------|
     ...   ...    ...

Bar 20
|----------------|-------------------|---------------|----------------|
|----------------|-------------------|---------------|----------------|
|----------------|-------------------|---------------|----------------|
|----------------|-/9--10----7--9----|---------------|----------------|
|--9-------------|-------------------|--7------------|--12------------|
|--10------------|-------------------|---------------|--10------------|

Bar 24
|---------------------|--------------------------|--------------------|
|---------------------|--------------------------|--------------------|
|---------------------|--------------------------|--------------------|
|---------------------|--------------------------|--------------------|
|---------------------|--------------------------|--------------------|
|--5--5--5--3--3--0-0-|--12--12--12--10--10--0-0-|--5--5--5--3--3--0--|
           ...    ...                ..                  ...      ...

Bar 27          //Let notes ring\
|---------------|----------------|------------------|----------------|
|---------------|----------------|------------------|----------------|
|---------------|----------------|------------------|----------------|
|---------------|----------------|------------------|----------------|
|--7------------|--7-------------|--9---9-----------|--9-------------|
|--8------------|--8----8--------|--10--10----------|--10------------|

Bar 31
|-------------------|---------------|----------------|---------------------|
|-------------------|---------------|----------------|---------------------|
|-------------------|---------------|----------------|---------------------|
|-/9--10----7--9----|---------------|----------------|---------------------|
|-------------------|--7------------|--12------------|---------------------|
|-------------------|---------------|--10------------|--5--5--5--3--3--0-0-|
                                                                ...    ...
Bar 35
|------------------------|---------------------|----------------|
|------------------------|---------------------|----------------|
|------------------------|---------------------|----------------|
|------------------------|---------------------|----------------|
|------------------------|---------------------|----------------|
|--12--12----10--10--0-0-|--5--5--5--3--3--8-8-|--8--------8----|
             ..      ...      ...   ...    ...

Bar 38
|----------------|----------------|----------------||
|----------------|----------------|----------------||
|----------------|----------------|----------------||
|----------------|----------------|----------------||
|-------7--------|--9-------------|--9-------------||
|--8----8--------|--10------------|--10------------||




Riff 2b: Guitar 2 (Play once through)


Bar 1
||-------------------|----------------|---------------------|
||-------------------|----------------|---------------------|
||-------------------|----------------|---------------------|
||-/9--10----7--9----|----------------|---------------------|
||-------------------|--10------------|--9------9h10 9------|
||-------------------|----------------|-----------------10--|

Bar 4
|-------------------|------------------------|--------------------|
|-------------------|------------------------|--------------------|
|-------------------|------------------------|--------------------|
|-------------------|------------------------|--------------------|
|-------------------|--10--10--10--9--9------|--------------------|
|--8--8----7--7--0--|--------------------0-0-|--8--8--8--7--7--0--|
          ...   ...               ...    ...            ...   ...
Bar 7
//                   Let notes ring                       \
|-----------------|-----------------|-----------------------|----------------|
|-----------------|-----------------|-----------------------|----------------|
|-----------------|-----------------|-----------------------|----------------|
|-----------------|-----------------|-----------------------|----------------|
|-----7-----------|--7--------------|------9----9---9---12--|--9--------10/--|
|--8---------8----|-------8----8----|--10-------10--10------|--10------------|

Bar 11
|-------------------|-------------|---------------------|--------------------|
|-------------------|-------------|---------------------|--------------------|
|-------------------|-------------|---------------------|--------------------|
|-/9--10----7--9----|-------------|---------------------|--------------------|
|-------------------|--10---------|--9------9h10 9------|--------------------|
|-------------------|-------------|-----------------10--|--8--8----7--7--0-0-|
                                                                         ...
Bar 15
|----------------------|-------------------|----------------|------------------|
|----------------------|-------------------|----------------|------------------|
|----------------------|-------------------|----------------|------------------|
|----------------------|-------------------|----------------|------------------|
|--10--10----9--9------|-------------------|--(5/ 7)--------|--7----9----10----|
|------------------10--|--8--8----7--7--0--|----------------|------------------|
                                       ...
Bar 19
|------------------------|-----------------|-------------------|
|------------------------|-----------------|-------------------|
|------------------------|-----------------|-------------------|
|------------------------|-----------------|-/9--10----7--9----|
|------12----12--12--10--|--9--------10----|-------------------|
|--10--------------------|-----------------|-------------------|

Bar 22
|------------------|---------------------|---------------------|
|------------------|---------------------|---------------------|
|------------------|---------------------|---------------------|
|------------------|---------------------|---------------------|
|--10--------10----|--9------9h10 9------|---------------------|
|------------------|-----------------10--|--8--8--8--7--7--0-0-|
                                                 ...       ...

Bar 25                                       //Let notes ring\
|------------------------|-------------------|----------------|
|------------------------|-------------------|----------------|
|------------------------|-------------------|----------------|
|------------------------|-------------------|----------------|
|--10--10--10--9--9------|-------------------|-----7----------|
|--------------------0-0-|--8--8----7--7--0--|--8-------------|
              ...    ...           ...   ...
Bar 28
//           Let notes ring             \
|-----------------|-----------------------|------------------|
|-----------------|-----------------------|------------------|
|-----------------|-----------------------|------------------|
|-----------------|-----------------------|------------------|
|--7---------7----|------9----9---9---12--|--9---------10/---|
|--8----8---------|--10-------10--10------|--10--------------|

Bar 31
|-------------------|----------------|------------------------|
|-------------------|----------------|------------------------|
|-------------------|----------------|------------------------|
|-/9--10----7--9----|----------------|------------------------|
|-------------------|--10------------|--9--10--12--10--9------|
|-------------------|----------------|--------------------10--|

Bar 34
|--------------------|---------------------------|-------------------|
|--------------------|---------------------------|-------------------|
|--------------------|---------------------------|-------------------|
|--------------------|---------------------------|-------------------|
|--------------------|--10--10----(10/12)p9-9----|----------------5--|
|--8--8----7--7--0-0-|---------------------------|--8--8----7--7-----|
                 ...
Bar 37
|------------------|-----------------|--------------------|----------------|
|------------------|-----------------|--------------------|----------------|
|------------------|-----------------|--------------------|----------------|
|------------------|-----------------|--------------------|----------------|
|--(5/ 7)----------|------9----10----|--9--10----12----9--|--9--------9----|
|------------------|-----------------|--------------------|----------------|




Riff 3a: Guitar 1 (Play 4 times, then play supplement) [Tempo = 60 BPM]


| |-------------------------------------| |---------------------------------| |
| |-------------------------------------| |---------------------------------| |
|7|-------------------------------------|5|---------------------------------|*|
|/|-------------------------------------|/|---------------------------------|*|
|4|-------------------------------------|4|---------------------------------| |
| |--7----7----7----8------7--5----0----| |--10----10----10------12--8--10--| |
                          ...     ...                            .........


        ==============
        | Supplement |
        ==============

        *Allow note to ring and fade out*
        | |-------|---------|---------|---------||
        | |-------|---------|---------|---------||
        |4|-------|---------|---------|---------||
        |/|-------|---------|---------|---------||
        |4|-------|---------|---------|---------||
        | |--5----|--(5)----|--(5)----|--(5)----||




Riff 3b: Guitar 2 (Play 4 times, then play supplement)


| |-------------------------------------| |---------------------------------| |
| |-------------------------------------| |---------------------------------| |
|7|-------------------------------------|5|---------------------------------|*|
|/|-------------------------------------|/|---------------------------------|*|
|4|--7----7----7----8------7--5---------|4|--10----10----10------12--8--10--| |
| |--------------------------------7----| |---------------------------------| |
                                  ...


        ==============
        | Supplement |
        ==============

        *Allow note to ring and fade out*
        | |-------|---------|---------|---------||
        | |-------|---------|---------|---------||
        |4|-------|---------|---------|---------||
        |/|-------|---------|---------|---------||
        |4|--7----|--(7)----|--(7)----|--(7)----||
        | |-------|---------|---------|---------||




Riff 4: Guitar 3 with clean tone (Play once) [Tempo = 110 BPM]


*Let notes ring wherever possible*

||-----------------------|-----------------------|--------------------------|
||-----------------------|-----------------------|--------------------------|
||-----------------------|-----------------------|--------------------------|
||--7-------7-------7----|--9-------9-------9----|--10-------10-------10----|
||-------0-------0-------|-------0-------0-------|--------0--------0--------|
||-----------------------|-----------------------|--------------------------|


|------------------------------|-----------------------|-----------------------|
|------------------------------|-----------------------|-----------------------|
|------------------------------|-----------------------|-----------------------|
|--7--9--10--12--10--9---------|-----7-------7----7----|--9-------9-------9----|
|-----------------------10--8--|--8-------8------------|-------8-------8-------|
|------------------------------|-----------------------|-----------------------|

                           //     Last bar    \
|--------------------------|-------------------||
|--------------------------|-------------------||
|--------------------------|-------------------||
|--10-------10-------10----|-------------------||
|--------8--------8--------|--8----------------||
|--------------------------|-------------------||


This riff begins at the same time as Riff 3's supplements.  On the last bar,
guitars 1 and 2 play the following parts respectively before proceeding into

riff 5:


        ============
        | Guitar 1 |
        ============

        ||------------------------||
        ||------------------------||
        ||------------------------||
        ||--7----9----10----10----||
        ||------------------------||
        ||------------------------||


        ============
        | Guitar 2 |
        ============

        ||----------------------||
        ||----------------------||
        ||----------------------||
        ||----------------------||
        ||--8----8----8----8----||
        ||----------------------||




Riff 5a: Guitars 1 and 2 (Play twice)


*Let notes ring wherever possible*

||-----------------------|-----------------------|--------------------------|
||-----------------------|-----------------------|--------------------------|
||-----------------------|-----------------------|--------------------------|
||--7-------7-------7----|--9-------9-------9----|--10-------10-------10----|
||-------0-------0-------|-------0-------0-------|--------0--------0--------|
||-----------------------|-----------------------|--------------------------|


|------------------------------|------------------------|
|------------------------------|------------------------|
|------------------------------|------------------------|
|--7--9--10--12--10--9---------|-----7-------7----7-----|
|-----------------------10--8--|--8-------8----------8--|
|------------------------------|------------------------|


|------------------------|--------------------------|
|------------------------|--------------------------|
|------------------------|--------------------------|
|--9-------9-------9-----|--10-------10-------10----|
|-------8-------8-----8--|--------8--------8--------|
|------------------------|--------------------------|


|----------------------------| |
|----------------------------| |
|----------------------------|*|
|-----7-----9-----10-----10--|*|
|--8-----8-----8------8------| |
|----------------------------| |




Riff 5b: Guitar 1 (Play 3 times)


||-------------------|----------------------|-------------------|
||-------------------|----------------------|-------------------|
||--2----------------|--2-------------------|-------------------|
||--2----------------|--2-------------------|--3----------------|
||--0----------------|--0----------3--2-----|--3----------------|
||-------------------|-------------------3--|--1----------------|


|-----------------------|-------------------|----------------------|
|-----------------------|-------------------|----------------------|
|-----------------------|--2----------------|--2-------------------|
|--3--------------------|--2----------------|--2-------------------|
|--3----------3--2h3p2--|--0----------------|--0----------3--2-----|
|--1--------------------|-------------------|-------------------3--|

                                   |_3_|
|-------------------|--------------------------| |
|-------------------|--------------------------| |
|-------------------|--------------------------|*|
|--3----------------|--2--------2--0h2p0-------|*|
|--3----------------|--2-----------------3--2--| |
|--1----------------|--0-----------------------| |




Riff 5c: Guitar 2 (Play once through)


Bar 1
||----------------------|--------------------------|-----------------------|
||----------------------|--------------------------|-----------------------|
||--------9------7------|--------------------------|--------9------10------|
||-----7----------------|--10------9----10--9------|-----------------------|
||--0-------------------|----------------------10--|--8--8-----------------|
||----------------------|--------------------------|-----------------------|
   ......

Bar 4
|-----------------------------|---------------------|-------------------------|
|-----------------------------|---------------------|-------------------------|
|-----------------------------|--------9------7-----|-------------------------|
|--9------10----12p10 9--10p9-|-----7---------------|--10-----9----10--9------|
|-----------------------------|--0------------------|---------------------10--|
|-----------------------------|---------------------|-------------------------|
                                ......

Bar 7                                     |_3_|
|------------------------|-----------------------------|----------------------|
|------------------------|-----------------------------|----------------------|
|------------------------|-------------9--7h9p7--------|--------9------7------|
|-------7--7--7---9------|------9---------------10--9--|-----7----------------|
|--8------------------8--|--7-------7------------------|--0-------------------|
|------------------------|-----------------------------|----------------------|
  ...                              ...                   ......

Bar 10
|--------------------------|-----------------------|
|--------------------------|-----------------------|
|--------------------------|--------9------10------|
|--10------9----10--9------|-----7-----------------|
|----------------------10--|--8--------------------|
|--------------------------|-----------------------|
                             ...
Bar 12
|-----------------------------|----------------------|-------------------------|
|-----------------------------|----------------------|-------------------------|
|-----------------------------|--------9------7------|-------------------------|
|--9------10----12p10 9--10p9-|-----7----------------|--10-----9----10--9------|
|-----------------------------|--0-------------------|---------------------10--|
|-----------------------------|----------------------|-------------------------|
                                ...

Bar 15                                    |_3_|
|------------------------|-----------------------------|-----------------------|
|------------------------|-----------------------------|-----------------------|
|------------------------|-------------9--7h9p7--------|--------9------7----9--|
|-------7--7--7---9------|------9---------------10--9--|--7--7-----------------|
|--8------------------8--|--7-------7------------------|-----------------------|
|------------------------|-----------------------------|-----------------------|
  ...                              ...

Bar 18
|----------------------------|-----------------|-------------------------------|
|----------------------------|-----------------|-------------------------------|
|--10---9-------12---10---9--|--10-------------|-------------------------------|
|-----------10---------------|---------7-------|--(7)----9--10--12--10--9--10--|
|----------------------------|-----------------|-------------------------------|
|----------------------------|-----------------|-------------------------------|

Bar 21
|-----------------------|-------------------------|------------------------|
|-----------------------|-------------------------|------------------------|
|--------9------7-------|--------------9---7---9--|--10--------------------|
|--7--7--------------9--|--10---9---7-------------|----------7--------9-10-|
|-----------------------|-------------------------|------------------------|
|-----------------------|-------------------------|------------------------|
  .....

Bar 24
|-------------------||
|-------------------||
|-------------------||
|--9~~--------------||
|-------------------||
|-------------------||





Riff 6a: Guitar 1 (Play 4 times) [Tempo = 80 BPM]


||------------------|------------------|------------------|
||------------------|------------------|------------------|
||--2------2--2--2--|------------------|--2------2--2--2--|
||--2------2--2--2--|--3------3--3--3--|--2------2--2--2--|
||--0------0--0--0--|--3------3--3--3--|--0------0--0--0--|
||------------------|--1------1--1--1--|------------------|


|---------------------|------------------|------------------|-----------------|
|---------------------|------------------|------------------|-----------------|
|---------------------|--2------2--2--2--|------------------|-----------------|
|--3------------------|--2------2--2--2--|--3------3--3--3--|--2----2----2----|
|--3------0-2-3-2-5-3-|--0------0--0--0--|--3------3--3--3--|--2----2----2----|
|--1------------------|------------------|--1------1--1--1--|--0----0----0----|

                |_3__|
|---------------------| |
|---------------------| |
|--7------5--4--------|*|
|--7------5--4--------|*|
|--5------3--2--2h3p2-| |
|---------------------| |




Riff 6b: Guitar 2 (Play 4 times)


            |_3__|                                      |_3__|
||-----------------------|-------------------|-----------------------|
||-----------------------|-------------------|-----------------------|
||-------9--7h9p7--------|-------------------|-------9--7h9p7--------|
||--7-------------10--9--|---------7--7--7h9-|--7-------------10--9--|
||-----------------------|--8----------------|-----------------------|
||-----------------------|-------------------|-----------------------|

                                    |_3__|
|------------------------|-----------------------|------------------|
|------------------------|-----------------------|------------------|
|------------------------|-------9--7h9p7--------|------------------|
|---------7-9-10-9-12-10-|--7-------------10--9--|---------7--7-----|
|--8---------------------|-----------------------|--8------------8--|
|------------------------|-----------------------|------------------|

                                   |_3__|
|----------------|------------------------| |
|----------------|------------------------| |
|----------------|------------------------|*|
|-------9--------|--12-----/10--9--9h10p9-|*|
|--7-------------|------------------------| |
|----------------|------------------------| |




Riff 7a <Variation of Riff 1a>: Guitar 1 (Play once) [Tempo = 70 BPM]


| |---------------------|--------------------|-----------|----------------|
| |---------------------|--------------------|-----------|----------------|
|3|---------------------|--------------------|-----------|----------------|
|/|--------(5/ 9)-------|--------(5/ 9)------|-----------|----------------|
|4|-----7---------------|-----7--------------|-----------|---------/7-----|
| |--0---------------0--|--0-----------------|--8--------|--(8)-----------|
    ...             ...   ...

|---------------------|--------------------|-----------|-----------|
|---------------------|--------------------|-----------|-----------|
|---------------------|--------------------|-----------|-----------|
|--------(5/ 9)-------|--------(5/ 9)------|-----------|-----------|
|-----7---------------|-----7--------------|--7--------|--9--------|
|--0---------------0--|--0-----------------|--8--------|--7--------|
  ...             ...   ...

|---------------------|--------------------|-----------|----------------|
|---------------------|--------------------|-----------|----------------|
|---------------------|--------------------|-----------|----------------|
|--------(5/ 9)-------|--------(5/ 9)------|-----------|----------------|
|-----7---------------|-----7--------------|-----------|-------/7----7--|
|--0---------------0--|--0-----------------|--8--------|----------------|
  ...             ...   ...

|---------------------|--------------------|-----------|-----------||
|---------------------|--------------------|-----------|-----------||
|---------------------|--------------------|-----------|-----------||
|--------(5/ 9)-------|--------(5/ 9)------|-----------|-----------||
|-----7---------------|-----7--------------|--7--------|--9--------||
|--0---------------0--|--0-----------------|--8--------|--7--------||
  ...             ...   ...




Riff 7b <Variation of Riff 1b>: Guitar 2 (Play once)


| |----------------|-------------------|---------------|------------------|
| |----------------|-------------------|---------------|------------------|
|3|----------------|-------------------|---------------|------------------|
|/|--2----------2--|--2----------------|---------------|------------------|
|4|--2----------2--|--2-----/10----10--|---------------|----------/7------|
| |--0----------0--|--0----------------|--8------------|--(8)-------------|
               ...   ...

|---------------|-------------------|---------------|---------------|
|---------------|-------------------|---------------|---------------|
|---------------|-------------------|---------------|---------------|
|---------------|-------------------|---------------|---------------|
|---------------|----------/5----5--|--7~~----------|--9------------|
|--7------------|--(7)--------------|---------------|---------------|


|----------------|-------------------|---------------|------------------|
|----------------|-------------------|---------------|------------------|
|----------------|-------------------|---------------|------------------|
|--2----------2--|--2----------------|---------------|------------------|
|--2----------2--|--2-----/10----10--|---------------|----------/7------|
|--0----------0--|--0----------------|--8------------|--(8)-------------|
             ...   ...

|---------------|-------------------|---------------|----------------||
|---------------|-------------------|---------------|----------------||
|---------------|-------------------|---------------|----------------||
|---------------|-------------------|---------------|----------------||
|---------------|-----------5----5--|--7~~----------|--9-------------||
|--7------------|--(7)--------------|---------------|-------------7-||




Riff 8 <Variation of Riff 1b>: Guitars 1 and 2 (Play once through)


                                        // Let notes ring \
||--------------------|-----------------|------------------|-------------------|
||--------------------|-----------------|------------------|-------------------|
||--------------------|-----------------|----------0-------|-------------------|
||-----------5--------|--4----4--2----5-|-----2---------2--|----4-----7--5--4--|
||-----2--------2-----|-----------------|--3---------------|-2-----2-----------|
||--0-----0--------0--|-----------------|------------------|-------------------|

                                         // Let notes ring \
|--------------------|------------------|-------------------|
|--------------------|------------------|--------1----------|
|--------------------|------------------|-------------------|
|-----------5--------|--4----4--2----5--|-----2-------2-----|
|-----2--------2-----|------------------|--3-------------3--|
|--0-----0--------0--|------------------|-------------------|

                                                            // Let notes ring \
|--------------------|--------------------|------------------|-----------------|
|--------------------|--------------------|------------------|-----------------|
|--------------------|--------------------|------------------|---------0-------|
|-----4-----7--5--4--|-----------5--------|--4----4--2----5--|----2---------2--|
|--2-----2-----------|-----2--------2-----|------------------|-3---------------|
|--------------------|--0-----0--------0--|------------------|-----------------|


|--------------------|--------------------|------------------|
|--------------------|--------------------|------------------|
|--------------------|--------------------|------------------|
|-----4-----7--5--4--|-----------5--------|--4----4--2----5--|
|--2-----2-----------|-----2--------2-----|------------------|
|--------------------|--0-----0--------0--|------------------|

// Let notes ring \
|-------------------|--------------------|--------------------|
|-------------------|--------------------|--------------------|
|-----0-----0-------|--------------------|--------------------|
|-------------------|-----4-----7--5--4--|-----------5--------|
|--3-----3-------3--|--2-----2-----------|-----2--------2-----|
|-------------------|--------------------|--0-----0--------0--|

                    // Let notes ring \
|------------------|-------------------|--------------------|
|------------------|-------------------|--------------------|
|------------------|--------0----------|--------------------|
|--4----4--2----5--|-----2-------2-----|-----4-----7--5--4--|
|------------------|--3-------------3--|--2-----2-----------|
|------------------|-------------------|--------------------|

                                         // Let notes ring \
|--------------------|------------------|-------------------|-----------------||
|--------------------|------------------|--------1----------|-----------------||
|--------------------|------------------|-------------------|-----------4~~~~-||
|-----------5--------|--4----4--2----5--|-----2-------2-----|-----4-----7-5-4-||
|-----2--------2-----|------------------|--3-------------3--|--2-----2--------||
|--0-----0--------0--|------------------|-------------------|-----------------||


The note with vibrato at the end of the last bar is played by guitar 1, and the
other notes are played by guitar 2.



Riff 9a: Guitar 1 (Play 4 times, replacing the last bar with the supplement)


                        |_3_|  //   Let notes ring    \
||----------------------------|-------------------------|----------------------|
||----------------------------|-------------------------|----------------------|
||----------------------------|-------------------------|----------------------|
||-------------------5--4h5p4-|-------2--2 1--2--4--1--|----------------------|
||-------(2/   7)-------------|--3-------3--2-----2--2--|-------(2/  5)----2---|
||--0-------------------------|-------------------------|--0-------------------|

//      Last bar     \
|--------------------| |
|--------------------| |
|--------------------|*|
|--7--------9--------|*|
|--7--------9--------| |
|--5--------7--------| |


        ==============
        | Supplement |
        ==============

        |---------------------||
        |---------------------||
        |---------------------||
        |--7--------9---------||
        |--7--------9---------||
        |--5--------7-----5-7-||




Riff 9b: Guitar 2 (Play 4 times, replacing the last bar with the supplement)


                      |_3_|  //    Let notes ring    \
||--------------------------|-------------------------|----------------------|
||--------------------------|-------------------------|----------------------|
||--------------------------|-------------------------|----------------------|
||-----------------5--4h5p4-|-------2--2 1--2--4--1--|--2----2----5----2----|
||------(2/   7)------------|--3-------3--2-----2--2--|--2----2----5----2----|
||--0-----------------------|-------------------------|--0----0----3----0----|


|--------------------| |
|--------------------| |
|--------------------|*|
|--7--------9--------|*|
|--7--------9--------| |
|--5--------7--------| |


        ==============
        | Supplement |
        ==============

        |---------------------||
        |---------------------||
        |---------------------||
        |--7--------9---------||
        |--7--------9---------||
        |--5--------7-----5-7-||




Riff 10: Guitars 1 and 2 (Play once)


||-------------------------|----------------------------|
||-------------------------|----------------------------|
||-------------------------|----------------------------|
||-------------------------|----------------------------|
||-------------7-----------|----------------------------|
||--7--0----0-------7--5-7-|--8--8--8--10-8-7-----5-5-7-|

|-------------------------|----------------------------|
|-------------------------|----------------------------|
|-------------------------|----------------------------|
|-------------------------|----------------------------|
|-------------7-----------|----------------------------|
|--7--0----0-------7--5-7-|--8--8--8--10-8-7-----5-5-7-|

|-------------------------|----------------------------|
|-------------------------|----------------------------|
|-------------------------|----------------------------|
|-------------------------|----------------------------|
|-------------7-----------|----------------------------|
|--7--0----0-------7--5-7-|--8--8--8--10-8-7-----5-5-7-|

|-------------------------|----------------------------||
|-------------------------|----------------------------||
|-------------------------|----------------------------||
|-------------------------|----------------------------||
|-------------7-----------|----------------------------||
|--7--0----0-------7--5-7-|--8--8--8--10-8-7-----7-7-8-||



Note the slight variation in the last bar.


Guitars 1 and 2 play riff 9a/9b respectivly, 3 times (including supplement)


Guitars 1 and 2 play riff 10 once


Guitars 1 and 2 play riff 9a/9b respectivly, 2 times (including supplement)



Riff 11: Guitars 1 and 2 end the song with the following:


||-------------------|---------------|---------------|---------------||
||-------------------|---------------|---------------|---------------||
||-------------------|---------------|---------------|---------------||
||--2----------------|--(2)----------|--(2)----------|--(2)----------||
||--2----------------|--(2)----------|--(2)----------|--(2)----------||
||--0----------------|--(0)----------|--(0)----------|--(0)----------||



End


Tab summary:        Intro x 2
                    Riff 1a + Riff 1b x 1
                    Riff 2a + Riff 2b x 1
                    Riff 3a +Riff 3b x 4
                    Riff 4 x 1
                    Riff 5a x 2
                    Riff 5b x 3 + Riff 5c x 1
                    Riff 6a + 6b x 4
                    Riff 7a + Riff 7b x 1
                    Riff 8 x 1
                    Riff 9a + Riff 9b x 4
                    Riff 10 x 1
                    Riff 9a + 9b x 3
                    Riff 10 x 1
                    Riff 9a + Riff 9b x 2
                    Riff 11 x 1

                    END
ⓘ Guitar tab for 'Narcissistic Funeral' by Mourning Beloveth, a doom metal band formed in 1992 from Athy, Kildare Irland

Almost there ...

Sign in to get your own page with links to favourite songs and more. You are just one click away...

Login with Facebook Login with Google