Log in

One click and you are in

Login with Facebook Login with Google

Why sign up and log in

Guitar Tabs Explorer
Mourning Beloveth bass tabs for Narcissistic funeral

Narcissistic Funeral bass tab - Mourning Beloveth

Mourning Beloveth bass tabs for Narcissistic funeral

Bass tabs with lyrics

Tune Down 1 & 1/2 Steps
                   C# F# B E

                 Tempo = 70 BPM
                Time Signature = 3/4

             -----------------------------
                 Transcribed by

                 PADDY MCMULLAN
              stinkypoohpants@yahoo.co.uk

                  Version 1.0

               -----------------------

               Tablature Symbols Used:


 (/)    - Legato Slide (Blank space indicates length of slide)
     - Slide Down to/Down From (Blank space indicates length of slide)
 /     - Slide Up To/Up From (Blank space indicates length of slide)
 ()    - Ghost Note/Tied Note/Implied Note
 |__3__|  - Triplet Notes




Intro: BASS RESTS FOR 8 BARS


Riff 1a: (Play 2 times)


||-----------------|-----------------|---------------|-------------------|
||-----------------|---------5----5--|---------------|-----------2----2--|
||-----------------|-----------------|--3------------|--(3)--------------|
||--0--0--------0--|--0--------------|---------------|-------------------|


|----------------|------------------|---------------|-----------------| |
|----------------|------------------|---------------|-----------------|*|
|----------------|----------5----5--|--3------------|--5----5--5------|*|
|--0--0----------|--0--0------------|---------------|-----------------| |




Riff 1b: (Play 6 times)


||--------------------|--------------------|--------------------|
||--------------------|--------------------|--------------------|
||--------------------|--------------------|--3--3--3--3--3--3--|
||--0--0--0--0--0--0--|--0--0--0--0--0--0--|--------------------|


|--------------------| |
|--------------------|*|
|--2--2--2--2--2--2--|*|
|--------------------| |




Riff 2: (Play 4 times) [Tempo = 80 BPM]


||------------------|---------------|-----------------|------------------|
||------------------|---------------|-----------------|------------------|
||--0--0----0--0----|--7------------|--5------5--5----|--3--3----2--2----|
||------------------|---------------|-----------------|------------------|


|------------------|------------------|---------------|----------------|
|------------------|------------------|---------------|----------------|
|--7--7----5--5----|--3--3----2--2----|--3------------|--3--------3----|
|------------------|------------------|---------------|----------------|


|-----------------|---------------| |
|-----------------|---------------|*|
|--5------5--5----|--5------------|*|
|-----------------|---------------| |




Riff 3: (Play 6 times) [Tempo = 65 BPM]


| |-------------------------------------| |----------------------------| |
|7|-------------------------------------|5|----------------------------|*|
|/|--7----7----7----8------7--5---------|/|----------------------------|*|
|4|--------------------------------7----|4|--3----3----3------5--1--3--| |



Interlude: Hold note for 7 bars [Tempo = 110 BPM]


||-------------------||
||-------------------||
||-------------------||
||--5----------------||




Riff 4: Play the fill once before proceeding into riff 4, which is played


    ========
    | Fill |
    ========

    ||--------------------|
    ||--------------------|
    ||--0----0----0----0--|
    ||--------------------|


||-------------------------|-------------------------|-------------------------|
||-------------------------|-------------------------|-------------------------|
||-(0)--0----0--0----0--0--|-(0)--2----2--2----2--2--|-(2)--3----3--3----3--3--|
||-------------------------|-------------------------|-------------------------|


|---------------------------|------------------------|-------------------------|
|---------------------------|------------------------|-------------------------|
|-(3)--0--2--3--5--3--2-----|------------------------|-------------------------|
|------------------------3--|--1--1--1----1----1--1--|-(1)--1----1--1----1--1--|


|-------------------------|------------------------| |
|-------------------------|------------------------|*|
|-------------------------|------------------------|*|
|-(1)--1----1--1----1--1--|-(1)--1----1----3----3--| |


After the first time, the first note is no longer a ghost note.




Riff 5: (Play 3 times) [Tempo = 80 BPM]


||-------------------|------------------|-------------------|
||-------------------|------------------|-------------------|
||--0----0--3--3--2--|------------------|--0----0--3--3--2--|
||-------------------|--1------1--1--1--|-------------------|


|------------------|-------------------|------------------|------------------|
|------------------|-------------------|------------------|------------------|
|------------------|--0----0--3--3--2--|------------------|------------------|
|--1------1--1--1--|-------------------|--1------1--1--1--|--0------0--0--0--|

        |_3_|
|---------------------| |
|---------------------|*|
|--5------3--2--2h3p2-|*|
|---------------------| |



Play Riff 1a 2 times



Play Riff 1b 6 times




Riff 6: (Play 4 times, replacing last bar with supplement) [Tempo = 75]


            |_3__|
||----------------------------|-----------------------|----------------------|
||----------------------------|-----------------------|----------------------|
||------(2/ 7)----10--9h10p9-|-----------------------|----------------------|
||--0-------------------------|--8------8--7--7--7----|--0----0----3----0----|


|----------------------| |
|----------------------|*|
|----------------------|*|
|--5--------7--8--7----| |


    ==============
    | Supplement |
    ==============

    |------------------------||
    |------------------------||
    |------------------------||
    |--5--------7--8--7--5-7-||




Riff 7: (Play once)


||------------------------|-------------------------|------------------------|
||------------------------|-------------------------|------------------------|
||-------------(7/ 10) --|-------------------------|-------------(7/ 10) --|
||--7--0----0-------------|--8--8--8--10-8-7--------|--7--0----0-------------|


|-------------------------|------------------------|--------------------------|
|-------------------------|------------------------|--------------------------|
|-------------------------|-------------(7/ 10) --|--------------------------|
|--8--8--8--10-8-7--------|--7--0----0-------------|--8--8--8--10-8-7------7--|


|------------------------|--------------------------||
|------------------------|--------------------------||
|-------------(7/ 10) --|--------------------------||
|--7--0----0-------------|--8--8--8--10-8-7------7 ||


Play Riff 6 three times (Including supplement)


Play Riff 7 six times


Play Riff 6 twice (Including supplement)


Play Riff 7 twice


End the song with the following:


*Allow note to ring until song fades out*
||-------------------|
||-------------------|
||-------------------|
||--0----------------|



End


Tab summary:    Riff 1a x 2
          Riff 1b x 6
          Riff 2 x 4
          Riff 3 x 6
          Interlude
          Riff 4 x 1
          Riff 5 x 3
          Riff 1a x 2
          Riff 1b x 6
          Riff 6 x 4
          Riff 7 x 1
          Riff 6 x 3
          Riff 7 x 6
          Riff 6 x 2
          Riff 7 x 2

          END

Almost there ...

Sign in to get your own page with links to favourite songs and more. You are just one click away...

Login with Facebook Login with Google