Log in

One click and you are in

Login with Facebook Login with Google

Why sign up and log in

Guitar Tabs Explorer
Mourning Beloveth bass tabs for Autumnal fires

Bass tabs with lyrics

Tune Down 1 & 1/2 Steps
                   C# F# B E

                 Tempo = 70 BPM
                Time Signature = 8/4

             -----------------------------
                 Transcribed by

                 PADDY MCMULLAN
              stinkypoohpants@yahoo.co.uk

                  Version 1.1
           (Corrections Outlined at Bottom of Tab)

               -----------------------

               Tablature Symbols Used:


 (/)    - Legato Slide (Blank space indicates length of slide)
     - Slide Down to/Down From (Blank space indicates length of slide)
 /     - Slide Up To/Up From (Blank space indicates length of slide)
 ()    - Ghost Note/Tied Note/Implied Note
 |__3__|  - Triplet Notes
  *    - Staccato Note



Riff 1: (Play 8 times)

||-------------------------------------|-------------------------------------|
||-------------------------------------|-------------------------------------|
||----------------------------------*--|----------------------------------*--|
||--5----------------5--------------5--|--5----------------5--------------1--|


|-------------------------------------|-----------------------------------|
|-------------------------------------|-----------------------------------|
|----------------------------------*--|-----------------------------------|
|--1----------------1--------------1--|--1--------------------------------|


|-------------------------------------|-------------------------------------|
|-------------------------------------|-------------------------------------|
|----------------------------------*--|----------------------------------*--|
|--5----------------5--------------5--|--5----------------5--------------1--|


|-------------------------------------|-----------------------------------| |
|-------------------------------------|-----------------------------------|*|
|----------------------------------*--|-----------------------------------|*|
|--1----------------1--------------1--|--1--------------------------------| |




Riff 2a: (Play 2 times) [Tempo = 130 BPM]


||-------------------------------------|
||-------------------------------------|
||-------------------------------------|
||--5--------------5--5----------------|


|-------------------------------------|----------------------------------------|
|-------------------------------------|----------------------------------------|
|-------------------------------------|----------------------------------------|
|--5---------------5------3------0----|--1--------1--------0--1------1------1--|


|---------------------------------------| |
|---------------------------------------|*|
|---------------------------------------|*|
|--1--------1--------1------0------3----| |




Riff 2b: (Play 4 times)


||-------------------------------------|
||-------------------------------------|
||-------------------------------------|
||--5--------------5--5----------------|


|--------------------------------------|
|--------------------------------------|
|--------------------------------------|
|--5----------------5------3------0----|


|-----------------------------------------|
|-----------------------------------------|
|-----------------------------------------|
|--1--------1--0--1--------1--------1--1--|


|-----------------------------------------| |
|-----------------------------------------|*|
|-----------------------------------------|*|
|--1--------1--0--1--------0----3----3----| |




Riff 3: (Play 8 times)


||-------------------------------------------|
||-------------------------------------------|
||-----------(7/ 8)----7---------------10----|
||--5---------------------8------------------|

                 |____3____|
|------------------------------------------------|
|------------------------------------------------|
|--(10/ 8)----8----8----7--------7--------------|
|--------------------------------------8----7----|


|-------------------------------------------|
|-------------------------------------------|
|-----------(7/ 8)----7---------------------|
|--5---------------------8------------10----|


|------------------------------------------| |
|------------------------------------------|*|
|------------------------------------------|*|
|--10--------8----7----7----8----7----8----| |




Riff 4: (Play 4 times)


||-----------------------------------|---------------------------------------|
||-----------------------------------|---------------------------------------|
||-----------------------------------|---------------------------------------|
||--5--------------------------------|--5------------5----8------7------8----|


|-------------------------------------------|
|-------------------------------------------|
|--7----7----7----7----7----7----7----10----|
|-------------------------------------------|


|------------------------------------------| |
|------------------------------------------|*|
|--7----7----7----7------------------------|*|
|----------------------7----7----8----8----| |




Riff 5: (Play 4 times) [Tempo = 110 BPM]


||---------------------------|---------------------------------------|
||---------------------------|---------------------------------------|
||--5------------------------|--(5)-------------------------3--------|
||---------------------------|---------------------3-----------------|


|-------------------------------------|---------------------------------------|
|-------------------------------------|---------------------------------------|
|---------------*---------------------|------------------------------3--------|
|--1------------1----1----------------|--(1)----------------0-----------------|


|------------------------------------|--------------------------------------| |
|------------------------------------|--------------------------------------|*|
|------------------------------------|--------------------3--------5--------|*|
|--5------------5----5---------------|--(5)---------------------------------| |



Interlude: (Play twice) [Tempo = 90 BPM]


||-----------------------------------|-----------------------------------| |
||-----------------------------------|-----------------------------------|*|
||--8--------------------------------|--6--------------------------------|*|
||-----------------------------------|-----------------------------------| |




Riff 6a: (Play twice)


  |____3____|  |_______3_____|  |_____3_____|  |_____3_____|
||---------------------------------------------------------------------|
||-----------------10----(10)---------8----(8)---------10----8----6----|
||--8----8----8------------------8----------------8--------------------|
||---------------------------------------------------------------------|


 |_____3____|  |_____3_____|  |_____3_____|  |____3____|
|------------------------------------------------------------------| |
|-----------------8----(8)---------6----(6)---------8----6----5----|*|
|--6----6----6----------------6----------------6-------------------|*|
|------------------------------------------------------------------| |




Riff 6b: (Play twice)


  |_____3_____|  |_____3_____|  |_____3_____|  |____3____|
||--------------------------------------------------------------------|
||--------------------------------------------------------------------|
||--8----(8)----8----8----(8)----8----8----(8)----8----8----8----8----|
||--------------------------------------------------------------------|


  |_____3_____|  |_____3_____|  |_____3_____|  |_____3______|
|----------------------------------------------------------------------| |
|----------------------------------------------------------------------|*|
|--6----(6)----6----6----(6)----6----6----(6)----6----6----(6)----6/ -|*|
|----------------------------------------------------------------------| |


The slide on the last note is only played on the second repeat.



Play riff 6a twice


Play riff 6b twice


Alternate between riff 6a and 6b until the song fades out


End


Tab summary:    Riff 1 x 8
          Riff 2a x 2
          Riff 2b x 4
          Riff 3 x 8
          Riff 4 x 4
          Riff 5 x 4
          Interlude
          Riff 6a x 2
          Riff 6b x 2
          Alternate riff 6a + 6b until fade

          END


-----------------------
Corrections (28/04/05):
-----------------------

* Minor correction to first bar of riff 6a

Almost there ...

Sign in to get your own page with links to favourite songs and more. You are just one click away...

Login with Facebook Login with Google