Log in

One click and you are in

Login with Facebook Login with Google

Why sign up and log in

Guitar Tabs Explorer
Mourning Beloveth bass tabs for All hope is pleading

All Hope Is Pleading bass tab by Mourning Beloveth

Mourning Beloveth bass tabs for All hope is pleading

Bass tabs with lyrics

Tune Down 1 & 1/2 Steps
                   C# F# B E

                 Tempo = 128 BPM
                Time Signature = 6/4

             -----------------------------
                 Transcribed by

                 PADDY MCMULLAN
              stinkypoohpants@yahoo.co.uk

                  Version 1.0
               -----------------------

               Tablature Symbols Used:


 p     - Pull-Off
 h     - Hammer-On
 (/)    - Legato Slide (Blank space indicates length of slide)
     - Slide Down to/Down From (Blank space indicates length of slide)
 /     - Slide Up To/Up From (Blank space indicates length of slide)
 ()    - Ghost Note/Tied Note/Implied Note
 REST   - Rest and sustain rest for duration of blank space




Intro: (Play once through)

||-----------R--      --|-------------R--     --|
||-----------E--      --|-------------E--     --|
||--7--------S--      --|--7----------S--     --|
||--0--------T--      --|--0----------T--     --|


|-------------------|-------------------|------------R--    --|
|-------------------|-------------------|------------E--    --|
|-------------------|--3----------------|--7---------S--    --|
|--3----------------|-------------------|--0---------T--    --|


|------------R--     --|-------------------|
|------------E--     --|-------------------|
|--7---------S--     --|-------------------|
|--0---------T--     --|--3----------------|


|---------------------------------||
|---------------------------------||
|--2--------0--2--3------2--0--2--||
|---------------------------------||




Riff 1: (Play 3 times)


||---------------------------------|--------------------------------|
||---------------------------------|--------------------------------|
||-----------2--0--2------3--2--3--|---------------3----2h3p2-------|
||--0------------------------------|--0------------------------3----|


|-------------------------------|---------------------------------|
|-------------------------------|---------------------------------|
|--5------------5--3----2----3--|--3--------0--2--3------2--0--2--|
|-------------------------------|---------------------------------|


|---------------------------------|------------------------------|
|---------------------------------|------------------------------|
|-----------2--0--2------3--2--3--|------------------------------|
|--0------------------------------|--0------------0----2----3----|


|------------------------------|---------------------------------| |
|------------------------------|---------------------------------|*|
|------------------------------|-----------------3------2--------|*|
|--3------------3----5----3----|--2--------2--3------------3--2--| |




Riff 2: (Play 6 times)


||---------------------------------|---------------------------------|
||---------------------------------|---------------------------------|
||---------------------------------|---------------------------------|
||--5------5----5--3------3--3--0--|--3--5----5----5--5----7----8----|


|---------------------------------|----------------------------| |
|---------------------------------|----------------------------|*|
|---------------------------------|--3-------------------------|*|
|--1--------1--1--1------1--1--3--|---------------0------------| |




Riff 3: (Play 4 times) [Time signature = 4/4]


||----------------------|------------------|-------------------|
||----------------------|------------------|-------------------|
||----------------------|------------------|-------------------|
||--0----0----0----0----|--(0)-------------|--3----------------|


|--------------------|----------------------|----------------------|
|--------------------|----------------------|----------------------|
|--------------------|----------------------|----------------------|
|--3--------5--------|--0----0----0----0----|--0----0----0----0----|


|-------------------|--------------------| |
|-------------------|--------------------|*|
|-------------------|--2------------2----|*|
|--3----------------|--------------------| |




Riff 4: (Play 10 times) [Time signature = 6/4] [Tempo = 90 BPM]


||--R--      --|--R--     -------------------|
||--E--      --|--E--     -------------------|
||--S--      --|--S--     -------------------|
||--T--      --|--T--     --0---1---3---3--0-|


|---------------------------------------------------|
|---------------------------------------------------|
|---------------------------------------------------|
|--1--1-1-1-1-1-1--1-1-1-1-1-1--1-1-1-1-1-1-0--0--0-|


|------------------------------------------------------|
|------------------------------------------------------|
|------------------------------------------------------|
|--1--1-1-1-1-1-1--1-1-1-1-1-1--1-1-1-1-1-3--3-3-3-3-3-|


After the first time, replace the first two bars with the supplment


    ==============
    | Supplement |
    ==============

    |------------------------------------------------------|
    |------------------------------------------------------|
    |------------------------------------------------------|
    |--5--5-5-5-5-5-5--5-5-5-5-5-5--5-5-5-5-5-5--5-5-5-5-5-|


    |---------------------------------------------|
    |---------------------------------------------|
    |---------------------------------------------|
    |--5--5-5-5-5-5-5--5-5-5-5-5-0---1---3---3--0-|




Riff 5: (Play 4 times) [Time signature = 8/4] [Tempo = 128]


||-----------------------------------------|
||-----------------------------------------|
||-----------------------------------------|
||--0--------0----0--0------3----3--2------|


|---------------------------------------------|
|---------------------------------------------|
|--3--------3----3--3----5--5--2--2--3--3--2--|
|---------------------------------------------|


|-----------------------------------------|
|-----------------------------------------|
|-----------------------------------------|
|--0--------0----0--0------3----3--2------|


|---------------------------------------------| |
|---------------------------------------------|*|
|------------------------5--5--2--2--3--3--2--|*|
|--3--------3----3--3-------------------------| |



Play riff 3 one and 1/2 times [Time signature = 4/4]



Riff 6: (Play 8 times, ending on the supplement) [Tempo = 60 BPM]


||-------------------|--------------------|----------------------|
||-------------------|--------------------|----------------------|
||--7----------------|--7------------7 --|--3------------3--3-5-|
||-------------------|--------------------|----------------------|


|----------------------| |
|----------------------|*|
|--5--------10----9----|*|
|----------------------| |


    ==============
    | Supplement |
    ==============

    |----------------| |
    |----------------|*|
    |--7-------------|*|
    |----------------| |



End


Tab summary:    Intro x 1
          Riff 1 x 3
          Riff 2 x 6
          Riff 3 x 4
          Riff 4 x 10
          Riff 5 x 4
          Riff 3 x 1 & 1/2
          Riff 6 x 8

          END

Almost there ...

Sign in to get your own page with links to favourite songs and more. You are just one click away...

Login with Facebook Login with Google