Log in

One click and you are in

Login with Facebook Login with Google

Why sign up and log in

Guitar Tabs Explorer
The Mountain Goats bass tabs for Sometimes i still feel the bruise

Sometimes I Still Feel The Bruise bass tab by The Mountain Goats

The Mountain Goats bass tabs for Sometimes i still feel the bruise

Bass tabs

Intro:

G|-----------------------------------2-------------------2----------------------------------|
D|-----------2--4-4--2-0-2-----0--0------5-4-2--0-2---------5-4-2--0-2-------2--4-4-2-0-2---|
A|-2--2-2--2---------------0-0----------------------0-0----------------2-2--2---------------|
E|------------------------------------------------------------------------------------------|

Verse 1:

G|-----------------------------------2-------------------2----------------------------------|
D|-----------2--4-4--2-0-2-----0--0------5-4-2--0-2---------5-4-2--0-2-------2--4-4-2-0-2---|
A|-2--2-2--2---------------0-0----------------------0-0----------------2-2--2---------------| x2
E|------------------------------------------------------------------------------------------|


Chorus:

G|---------------------------------2------------------2--------------------------------|
D|-5--5-5--5-4-5--5-5-5--0--0-0--0---5-4-5-4--2---------5-4-2--0---------------------4-|
A|---------------------------------------------0--0-0------------2--2-2--0--2--2-2-----| x2
E|-------------------------------------------------------------------------------------|

Post- Chorus:

G|----------------2-------------------------|
D|-0--0-0--4-5--5----5--------------------4-|
A|---------------------2--2-2--0--2--2-2----| x2
E|------------------------------------------|

G|---------------------------------2-------------------------------------------------|
D|-5--5-5--5-4-5--5-5-5--0--0-0--0---5-4-5-4--0--0-0--0----------------------------4-|
A|-------------------------------------------------------------0-2--2-2--0-2--2-2----|
E|------------------------------------------------------3--3-3-----------------------|

G|----------------2-------------------------|
D|-0--0-0--4-5--5----5--------------------4-|
A|---------------------2--2-2--0--2--2-2----|
E|------------------------------------------|

Interlude:
G|-----------------------------------2-------------------2----------------------------------|
D|-----------2--4-4--2-0-2-----0--0------5-4-2--0-2---------5-4-2--0-2-------2--4-4-2-0-2---|
A|-2--2-2--2---------------0-0----------------------0-0----------------2-2--2---------------|
E|------------------------------------------------------------------------------------------|


Verse 2:

G|-----------------------------------2-------------------2----------------------------------|
D|-----------2--4-4--2-0-2-----0--0------5-4-2--0-2---------5-4-2--0-2-------2--4-4-2-0-2---|
A|-2--2-2--2---------------0-0----------------------0-0----------------2-2--2---------------| x2
E|------------------------------------------------------------------------------------------|


Chorus:

G|---------------------------------2------------------2--------------------------------|
D|-5--5-5--5-4-5--5-5-5--0--0-0--0---5-4-5-4--2---------5-4-2--0---------------------4-|
A|---------------------------------------------0--0-0------------2--2-2--0--2--2-2-----| x2
E|-------------------------------------------------------------------------------------|

Post- Chorus:

G|----------------2-------------------------|
D|-0--0-0--4-5--5----5--------------------4-|
A|---------------------2--2-2--0--2--2-2----| x2
E|------------------------------------------|

G|---------------------------------2-------------------------------------------------|
D|-5--5-5--5-4-5--5-5-5--0--0-0--0---5-4-5-4--0--0-0--0----------------------------4-|
A|-------------------------------------------------------------0-2--2-2--0-2--2-2----|
E|------------------------------------------------------3--3-3-----------------------|

G|----------------2-------------------------|
D|-0--0-0--4-5--5----5----------------------|
A|---------------------2--2-2--0--2--2-2--0-|
E|------------------------------------------|


Outro:

G|-----------------------------------2-------------------2----------------------------------|
D|-----------2--4-4--2-0-2-----0--0------5-4-2--0-2---------5-4-2--0-2-------2--4-4-2-0-2---|
A|-2--2-2--2---------------0-0----------------------0-0----------------2-2--2---------------| x2
E|------------------------------------------------------------------------------------------|

G|--------------------------------------|
D|------------------------------4-------|
A|-2--2-2--0--2--2-2--0--2--2-2----2----|
E|--------------------------------------|

Almost there ...

Sign in to get your own page with links to favourite songs and more. You are just one click away...

Login with Facebook Login with Google