Guitar Tabs Explorer
The Mountain Goats chords for International small arms traffic blues ukulele

International Small Arms Traffic Blues Ukulele chords by The Mountain Goats

The Mountain Goats chords for International small arms traffic blues ukulele

Chords with lyrics

TUNING: GBEA
E: 1-0-0-2
A: 2-2-0-0
B: 4-0-2-2

Tab A:
A-2------0-------0--------2-2-2---
E-0--0-------0-------0----0-0-0---
B-0------------0-------0--0-0-0---
G-1----1---1-------1------1-1-1---

Tab B:
A-2------0-------0---0-2--2-2-2---
E-0--0-------0------------0-0-0---
B-0------------0----------0-0-0---
G-1----1---1-------1------1-1-1---

  E       A   E   Tab A:
My love is like a powder keg
  E       A   E
My love is like a powder keg
    B         E
In the corner of an empty warehouse
     A        E
Somewhere just outside of town
       B
About to burn down

Tab A: x2

  E       A   E    Tab A:
My love is like a Cuban plane
  E       A   E
My love is like a Cuban plane
B      E
Flying from Havana
    A           E
Up the Florida coast to the 'Glades
    B
Soviet made

Tab A: x2

Tab C:
A-2------0-------0---0----2-2-2---
E-0--0-------0------------0-0-0---
B-0------------0----------0-0-0---
G-1----1---1-------1---1--1-1-1---

Tab A:

  E        A              E   Tab A:
Our love is like the border between Greece and Albania
  E        A              E   Tab A:
Our love is like the border between Greece and Albania
    B        E
Trucks loaded down with weapons
A          E
Crossing over every night
        B
Moon yellow and bright

      A            E
There is a shortage in the blood supply
     A         E
But there is no shortage of blood
A            E
The way I feel about you baby can't explain it
B           E
You got the best of my love

Tab C: x5

Tab D:
A-2------0-------0-------2---
E-0--0-------0-------0---0---
B-0------------0---------0---
G-1----1---1-------1-----1---
ⓘ Guitar chords for 'International Small Arms Traffic Blues Ukulele' by The Mountain Goats, an indie rock band formed in 1991 from Claremont,California,USA