Log in

One click and you are in

Login with Facebook Login with Google

Why sign up and log in

Guitar Tabs Explorer
The Mountain Goats bass tabs for Amy aka spent gladiator 1 live

Amy Aka Spent Gladiator 1 Live bass tab by The Mountain Goats

The Mountain Goats bass tabs for Amy aka spent gladiator 1 live

Bass tabs

[Opening]

G|---------------------------------------------------------------|
D|---------------------------------------------------------------|
A|---------------------------------------------------------------|
E|7-7-7---7--7-7-7-7---7--7-7-7-7---7--7-7-7-7-------------------|

[First Verse]

G|---------------------------------------------------------------|
D|---------------------------------------------------------------|
A|----------------------------------------------------------7-7-7|
E|7--7-7-7-7---7--7-7-7-7---7-7-7-4-4-4---4--4-4-4-4---4--4------|

G|---------------------------------------------------------------|
D|---------------------------------------------------------------|
A|---7-7-7---------------7-7-7---7-7\----------------------------|
E|---------7-7-7---7-7-7--------------2-2-2---4--2-7-7-7---7--7--|

G|---------------------------------------------------------------|
D|---------------------------------------------------------------|
A|----------------------------------------7-7-7---7-7-7----------|
E|7-7-7---7-7-7-4-4-4---4--4-4-4-4---4--4---------------7-7-7---7|

G|---------------------------------------------------------------|
D|---------------------------------------------------------------|
A|-----7-7-7---7-7\----------------------------------------------|
E|-7-7--------------2-2-2----------------------------------------|


[Chorus]

G|---------------------------------------------------------------|
D|---------------------------------------------------------------|
A|------7-7-7---7--7-7-7-7---7-7---------------------------------|
E|2-2-4--------------------------4-7-7-7---7--7-7-7-7---7-7-7--7-|

G|---------------------------------------------------------------|
D|---------------------------------------------------------------|
A|---------------------------------------------------------------|
E|7-7-9-7-6--6-6--6-7-6-2-4--4--4-2-4/-7--7----------------------|

[Second Verse]

G|---------------------------------------------------------------|
D|---------------------------------------------------------------|
A|----------------------------------------------------------7-7-7|
E|7--7-7-7-7---7--7-7-7-7---7-7-7-4-4-4---4--4-4-4-4---4--4------|

G|---------------------------------------------------------------|
D|---------------------------------------------------------------|
A|---7-7-7---------------7-7-7---7-7\----------------------------|
E|---------7-7-7---7-7-7--------------2-2-2---4--2-7-7-7---7--7--|

G|---------------------------------------------------------------|
D|--------------6-6-6---6--6-6-6-6---6--6------------------------|
A|----------------------------------------7-7-7---7-7-7----------|
E|7-7-7---7-7-9-----------------------------------------7-7-7---7|

G|---------------------------------------------------------------|
D|---------------------------------------------------------------|
A|-----7-7-7---7-7/-9-9-9----------------------------------------|
E|-7-7-----------------------------------------------------------|

[Second Chorus]

G|---------------------------------------------------------------|
D|--------------------------------6-6-6---6--6-6-6-6---6-6/-9--9-|
A|9-9\-7-7-7---7--7-7-7-7---7-7-9--------------------------------|
E|---------------------------------------------------------------|

G|---------------------------------------------------------------|
D|-9-11-9-8--8--8-9-8-4-6--6--6-4-6/-9--9------------------------|
A|---------------------------------------------------------------|
E|---------------------------------------------------------------|

[Bridge]

G|--------5--7-8--10--8--7--8--7---------------------------5--8--|
D|9-9\----------------------------9---9--9-9-9-9---9-9\----------|
A|-----7------------------------------------------------7--------|
E|---------------------------------------------------------------|

G|10--8--7--3--5---8--7--5-3--5--5-------------------------------|
D|---------------------------------------------------------------|
A|---------------------------------------------------------------|
E|---------------------------------------------------------------|

[Third Verse]

G|5-5-5----------------------------------------------------------|
D|------9-9-9---9--9-9-9-9---9-9-9-6-6-6---6--6-6-6-6---6--6-----|
A|-----------------------------------------------------------7-7-|
E|---------------------------------------------------------------|

G|---------------------------------------------------------------|
D|---------------------------------------------------------------|
A|7---7-7-7---------------7-7-7---7-7\---------------------------|
E|----------7-7-7---7-7-7--------------2-2-2---4--2-7-7-7---7--7-|

G|---------------------------------------------------------------|
D|--------------6-6-6---6--6-6-6-6---6--6------------------------|
A|----------------------------------------7-7-7---7-7-7----------|
E|7-7-7---7-7-9-----------------------------------------7-7-7---7|

G|---------------------------------------------------------------|
D|---------------------------------------------------------------|
A|-----7-7-7---7-7/-9-9-9----------------------------------------|
E|-7-7-----------------------------------------------------------|

[Repeat Second Chorus]

G|---------------------------------------------------------------|
D|--------------------------------6-6-6---6--6-6-6-6---6-6/-9--9-|
A|9-9\-7-7-7---7--7-7-7-7---7-7-9--------------------------------|
E|---------------------------------------------------------------|

G|---------------------------------------------------------------|
D|-9-11-9-8--8--8-9-8-4-6--6--6-4-6/-9--9------------------------|
A|---------------------------------------------------------------|
E|---------------------------------------------------------------|


[Outro]

G|---------------------------------------------------------------|
D|9--9-9-9-9---9--9-9-9-9---9\-----------------------------------|
A|---------------------------------------------------------------|
E|-------------------------------7-------------------------------|

*****************

| / slide up
| \ slide down
| ~ hold down

Almost there ...

Sign in to get your own page with links to favourite songs and more. You are just one click away...

Login with Facebook Login with Google