Log in

One click and you are in

Login with Facebook Login with Google

Why sign up and log in

Guitar Tabs Explorer
Mountain tabs for Mississippi queen

Guitar tabs with lyrics

Here is my unofficial tab of the song including solo.

Little intro lick.

E:----------------
B:----------------
G:----------------
D:-------5--------
A:---------7~~~---
E:--5-7-----------

Mini-solo played over opening chords.

E:--------19-----------------------------------------------------------
B:--19b21----19b21r19--17---------------17-19-17~~-------17^19-17~~----
G:------------------------18-16~~-16-18------------16^18---------------
D:---------------------------------------------------------------------
A:---------------------------------------------------------------------
E:---------------------------------------------------------------------

E:------------19---------------------------
B:--19b21----19b21r19--17---------------17-19-17~~-------17^19-17~~----
G:------------------------18-16~~-16-18------------16^18---------------
D:---------------------------------------------------------------------
A:---------------------------------------------------------------------
E:---------------------------------------------------------------------

E:------------19---------------------------
B:--17--19b21----19b21r19--17~~----17-17~--
G:------------------------------18---------
D:-----------------------------------------
A:-----------------------------------------
E:-----------------------------------------

The opening chords are as follows:

E:-------------------------------------------
B:-------------------------------------------
G:-------------------------------------------
D:--7/9-9-9-9--7/9-7~~-9--5/7-7-7-7--7-7-5-7-
A:--7/9-9-9-9--7/9-----9--5/7-7-7-7--7-7-5-7-
E:--5/7-7-7-7--5/7-----7--3/5-5-5-5--5-5-3-5-

              Mississippi Queen
E:---------------------------------------
B:---------------------------------------
G:--7/9-9-9-9-----------------------7-9--
D:--7/9-9-9-9-----------------------7-9--
A:--5/7-7-7-7-----------------------5-7--
E:--5/7-7-7-7--------------0-0-0----5-7--
               If ya know what I   mean
E:--------------------------------------
B:--------------------------------------
G:--7/9-9-9-9---------------------------
D:--7/9-9-9-9---------------------------
A:--5/7-7-7-7------------------------7--
E:--5/7-7-7-7----------------0-2b3-0----

repeat, but replace If ya know what I mean with: she taught me
everything.

E:----------------------
B:----------------------
G:----------------------
D:--5/7-7-7-7--7-7-5-7--
A:--5/7-7-7-7--7-7-5-7--
E:--3/5-5-5-5--5-5-3-5--

do that twice (I forget the words there..)

E:---------------------------------------
B:---------------------------------------
G:--7/9-9-9-9-----------------------7-9--
D:--7/9-9-9-9-----------------------7-9--
A:--5/7-7-7-7-----------------------5-7--
E:--5/7-7-7-7--------------0-0-0----5-7--

E:--------------------------------------
B:--------------------------------------
G:--7/9-9-9-9---------------------------
D:--7/9-9-9-9---------------------------
A:--5/7-7-7-7------------------------7--
E:--5/7-7-7-7----------------0-2b3-0----

E:------------------------------------------------
B:------------------------------------------------
G:------------------------------------------------
D:--7/9-9-9-9--7/9-7~~-9--5/7-7-7-7--7-7-5-7---2--
A:--7/9-9-9-9--7/9-----9--5/7-7-7-7--7-7-5-7---2--
E:--5/7-7-7-7--5/7-----7--3/5-5-5-5--5-5-3-5---0--


intro lick

second verse is a repeat of first verse, but there are a few little
guitar lines over the rythem line.  They are as follows:

E:------7----------
B:--7b9---7b9r7-5--
G:-----------------  this line gets reapeated twice, then he plays
this for variety >=-)

E:-------------------
B:--7b8-7b8-7b8r7-5--
G:------------------- then he plays the first line one more time.

Then he plays this

E:-------------------------10----------------
B:--10b12-10b12~~~--10b12------10b12r10-8----
G:----------------------------------------9--

Then he plays >=-)

E:--10b12--10b12~~~--13b15r13--12-10--
B:------------------------------------
G:------------------------------------

E:--12^10--------------------10----------------
B:--------12--10b12-10b12~~~-----10b12r10-8~~--
G:---------------------------------------------


OK now for what you've all been waiting for >=-) the solo:

E:--------19-----------------------19---------------
B:--19b21----19b21r19-17-----19b21----19b21r19-17---
G:-----------------------18-------------------------
D:--------------------------------------------------

E:----------------------------------------------
B:----------------------------12b14--12-9-------
G:--14b16-14-12-14b16-12------------------11-9--
D:-----------------------14---------------------

E:--------------------------------------------------
B:--------15---------------------15b17-15-12--------
G:--14b16----14b16-14-12-14------------------14-12--
D:--------------------------10----------------------

E:----------------------------------21b23--21b23--21-21b23-21-21b23--
B:--19b21--19b21-------17--21^17-------------------------------------
G:---------------16-18-----------------------------------------------
D:-------------------------------------------------------------------

a bit more singing..


intro lick

END
^^^

Other versions of Mississippi Queen

Mississippi queenChords
Mississippi queen-(Ver. 2)Tabs
Mississippi queen-(Ver. 3)Tabs

Almost there ...

Sign in to get your own page with links to favourite songs and more. You are just one click away...

Login with Facebook Login with Google