Guitar Tabs Explorer
Mountain guitar tabs for Mississippi queen (Ver. 3)

Mississippi Queen tab


5 / 5 [1 vote]


Ayreon77Author: Ayreon77

Jamplay guitar lessons

Mississippi Queen tab by Mountain (Ver. 3) (Solo)

This tablature shows you how to play the guitar solo on "Mississippi Queen" by Mountain. "Mississippi Queen" is a song from Mountain´s 1970 album "Climbing" and was also released as a single.

Guitar tabs

Print
  • Tuning: Standard tuning
  • Difficulty: Intermediate
-------------------------------------------------------------------------
                               Artist - Mountain
                              *******************
                            Song - Mississippi Queen
                           **************************
                            Album - Climbing (1970)
                           *************************
                             Tabbed By - Ayreon77
                            **********************
-------------------------------------------------------------------------
Tuning = Standard



INTRO SOLO
***********
e|--b--19--b-------------|------------------|----------------|-----b-19--b----------------p---s--|
B|-19-----19-19-17-------|-------17-19~~-17-|-------17-19-17-|-19-19----19-19-17-----17-20-17~~\-|
G|-----------------18-16-|-16-18------------|-16-18----------|--------------------18-------------|
D|-----------------------|------------------|----------------|-----------------------------------|
A|-----------------------|------------------|----------------|-----------------------------------|
E|-----------------------|------------------|----------------|-----------------------------------|


--------------------------
00:58
SOLO 1
*******
e|---------------|---------------|----------------|-----------------|
B|--b-12-rb------|--b-12-rb------|--b-r-b---------|--b-12--b--------|
G|-11----11-9~~~-|-11----11-9~~~-|-11-----11-9~~~-|-11----11-11-9~~-|
D|---------------|---------------|----------------|-----------------|
A|---------------|---------------|----------------|-----------------|
E|---------------|---------------|----------------|-----------------|

                                                  b
e|--b---b-----10-rb---------|--b---b-----rbp---|-15--15-12--------|
B|-10--10~~~~----10-8~~~--s-|-15--15~~~-15--12-|-----------15~~~~-|
G|-----------------------9\-|------------------|------------------|
D|--------------------------|------------------|------------------|
A|--------------------------|------------------|------------------|
E|--------------------------|------------------|------------------|


e|--brp----------------------------------|
B|-15--12-----b--b---15--b--b----------s-|
G|--------14-14-14------14-14-14-12~~~~\-|
D|---------------------------------------|
A|---------------------------------------|
E|---------------------------------------|


--------------------------
01:41
MAIN SOLO
**********
e|--b-19-rb-----------|--b-19-rb-------s-|--b----------b-b------|
B|-19----19-17--------|-19----19-17~~~~\-|-10-10-8-10-10-8------|
G|-------------18~~~~-|------------------|-----------------9~~~-|
D|--------------------|------------------|----------------------|
A|--------------------|------------------|----------------------|
E|--------------------|------------------|----------------------|


e|-11b-------------|--b-10--b--------------|--b-----------------|
B|-12b-12-9--------|-10----10-10-8-10------|-15-15-12---------s-|
G|----------11-9~~-|------------------9~~~-|----------14-12-14\-|
D|-----------------|-----------------------|--------------------|
A|-----------------|-----------------------|--------------------|
E|-----------------|-----------------------|--------------------|

                             b     b     b     b     b  b
e|--b--b-------------p--s-|-19-19-19-19-19-19-19-19-19-19-|
B|-19-19--------17-20-17\-|-------------------------------|
G|--------16-18-----------|-------------------------------|
D|------------------------|-------------------------------|
A|------------------------|-------------------------------|
E|------------------------|-------------------------------|

    b
e|-19-19-17---------------------s-|
B|----------19----17-21~~~~-17~~\-|
G|-------------18-----------------|
D|--------------------------------|
A|--------------------------------|
E|--------------------------------|



ENJOY.............

Other versions of Mississippi Queen

- Mississippi queenChords
- Mississippi queenTabs
- Mississippi queen-(Ver. 2)Tabs

Comment this song and these guitar tabs

Do you have corrections, comments on the guitar tabs, thoughts about the song or a message to the author? Write them below.