Log in

One click and you are in

Login with Facebook Login with Google

Why sign up and log in

Guitar Tabs Explorer
Bob Mould tabs for Sinners

Guitar tabs

Sinners And Their Repentances
by Bob Mould

E----------------------------------------------------------------|
B----------------------------------------------------------------|
G------6-----6-------6-----6-------6-----6---------6-------6----.|
D----6-----6-------4-----4-------4-----4---------4-------4------.|
A--4-----4-----4-2-----2-----2-0-----0-----0---6-------6---------|
E--------------------------------------------4-------4-----------|

E--------------------------------------------------------------0--0--0-0-0-0-0-
B--------------------------------------------------------------0--0--0-0-0-0-0-
G--6-6-6-6-6-6-6-6-6-6-6-6-6-6-6-6-6-6-6-6-----2-9-9-9---------11-11-9-8-6-4-2-
D--6-6-6-6-6-4-4-4-4-4-4-4-4-4-4-4-4-4-4-4-4-4-2-9-9-9-7-7-7-9-----------------
A--4-4-4-4-4-2-2-2-2-2-0-0-0-0-0-6-6-6-6-6-4-4-0-7-7-7-7-7-7-9-----------------
E--------------------------------4-4-4-4-4-2-2---------5-5-5-7-----------------

that's pretty much it.

IF THIS IS POSTED ANYWHERE ELSE, PLEASE GIVE ME CREDIT
thanks,
Sam

please send SPECIFIC requests to:
--
trubba not,
-Sam     elric@selway.umt.edu   OR   elric@axposf.pa.dec.com
Rain King in chains there's nowhere to go  OR elric@lewis.umt.edu
On my naming day when i come 12, i kilt a wyld boar. trubba not.

Almost there ...

Sign in to get your own page with links to favourite songs and more. You are just one click away...

Login with Facebook Login with Google