Log in

One click and you are in

Login with Facebook Login with Google

Why sign up and log in

Guitar Tabs Explorer
Motörhead tabs for Too late too late

Guitar tabs with lyrics

Intro
    Q=192
   4/4
    Gtr I
               ~~~~~~~~~     PM--|
    A chord diagramE MajorE A chord diagramE MajorE A chord diagramE MajorE A chord diagramE MajorE Q  Q    +Q   A chord diagramE MajorE A chord diagramE MajorE A chord diagramE MajorE A chord diagramE MajorE A chord diagramE MajorE A chord diagramE MajorE  4x
||----------------|-------------------||
||o---------------|------------------o||
||----------5-----|-------------------||
||--5h7-7-7-5--7--|-(7)--7-7-------5--||
||o-0-0-0-0----0--|-(0)--0-0-5-6-7---o||
||----------------|-------------------||
 |-Rhy Fig 1            end Rhy Fig 1-|

w/Rhy Fig 1 x4
  Gtr II
   A chord diagramE MajorE  A chord diagramE MajorE  A chord diagramE MajorE A chord diagramE MajorE A chord diagramE MajorE A chord diagramE MajorE A chord diagramE MajorE A chord diagramE MajorE   +H       A chord diagramE MajorE A chord diagramE MajorE A chord diagramE MajorE A chord diagramE MajorE   A chord diagramE MajorE A chord diagramE MajorE A chord diagramE MajorE A chord diagramE MajorE Q      Q    +H       A chord diagramE MajorE A chord diagramE MajorE A chord diagramE MajorE A chord diagramE MajorE
|--------------------|------------------|-------------------|------------------|
|--------------------|------------------|-------------------|------------------|
|-------------5---|------------------|---------5b5.5-----|------------------|
|---------5h7---7-|-(7)------------5-|-5h7-7-7--------7--|-(7)------------5-|
|--------7-7---------|----------5-6-7---|-------------------|----------5-6-7---|
|--------------------|------------------|-------------------|------------------|


  A chord diagramE MajorE A chord diagramE MajorE A chord diagramE MajorE A chord diagramE MajorE Q      Q    +H       A chord diagramE MajorE A chord diagramE MajorE A chord diagramE MajorE A chord diagramE MajorE   A chord diagramE MajorE A chord diagramE MajorE A chord diagramE MajorE A chord diagramE MajorE Q      Q    +H       A chord diagramE MajorE A chord diagramE MajorE A chord diagramE MajorE A chord diagramE MajorE
|-------------------|------------------|-------------------|------------------|
|-------------------|------------------|-------------------|------------------|
|---------5b5.5-----|------------------|---------5b5.5-----|------------------|
|-5h7-7-7--------7--|-(7)------------5-|-5h7-7-7--------7--|-(7)------------5-|
|-------------------|----------5-6-7---|-------------------|----------5-6-7---|
|-------------------|------------------|-------------------|------------------|


    Gtrs I, II
    A chord diagramE MajorE A chord diagramE MajorE A chord diagramE MajorE A chord diagramE MajorE A chord diagramE MajorE A chord diagramE MajorE A chord diagramE MajorE A chord diagramE MajorE   A chord diagramE MajorE A chord diagramE MajorE A chord diagramE MajorE A chord diagramE MajorE A chord diagramE MajorE A chord diagramE MajorE A chord diagramE MajorE A chord diagramE MajorE  4x
||------------------|------------------||
||o-----------------|-----------------o||
||------------------|------------------||
||--5h7-7-7-7-7-7-7-|-7-7-7-7-------5--||
||o-0---0-0-0-0-0-0-|-0-0-0-0-5-6-7---o||
||------------------|------------------||
 |-Rhy Fig 2            end Rhy Fig 2 -|

   Verse 1, 2, 3
    $
||--
||o- Rhy Fig 2 x8
||--
||--
||o-
||--

 Chorus
  Gtrs I, II
|-Rhy Fig 3
  A chord diagramE5E5              A chord diagramC5C5              A chord diagramB5B5              A chord diagramA5A5
  Q  Q  +A chord diagramE MajorE A chord diagramE MajorE Q    Q  Q  +A chord diagramE MajorE A chord diagramE MajorE Q    Q  Q  +A chord diagramE MajorE A chord diagramE MajorE Q    Q  Q  +A chord diagramE MajorE A chord diagramE MajorE A chord diagramE MajorE A chord diagramE MajorE
  |  |   | | |    |  |   | | |    |  |   | | |    |  |   | | | |
  /  /   / / /    /  /   / / /    /  /   / / /    /  /   / / / /
|---------------|---------------|---------------|----------------|


                                                 1.
                                         To Coda
  A chord diagramE5E5              A chord diagramD5D5              A chord diagramB5B5              end Rhy Fig 3-|
  Q  Q  +A chord diagramE MajorE A chord diagramE MajorE Q    Q  Q  +A chord diagramE MajorE A chord diagramE MajorE Q    Q  A chord diagramE MajorE A chord diagramE MajorE Q  A chord diagramE MajorE A chord diagramE MajorE   Q  A chord diagramE MajorE A chord diagramE MajorE A chord diagramE MajorE A chord diagramE MajorE Q
  |  |   | | |    |  |   | | |    |  | | |  | |   |  | | | | |
  /  /   / / /    /  /   / / /    /  / / /  / /   /  / / / / /
|---------------|---------------|---------------|---------------|


Rhy Fig 1 x2


             ~~~~~~~~~     PM--|                ~~~~~~~~~     PM--|
  A chord diagramE MajorE A chord diagramE MajorE A chord diagramE MajorE A chord diagramE MajorE Q  Q    +Q   A chord diagramE MajorE A chord diagramE MajorE A chord diagramE MajorE A chord diagramE MajorE A chord diagramE MajorE A chord diagramE MajorE   A chord diagramE MajorE A chord diagramE MajorE A chord diagramE MajorE A chord diagramE MajorE Q  Q    +Q   A chord diagramE MajorE A chord diagramE MajorE A chord diagramE MajorE A chord diagramE MajorE A chord diagramE MajorE A chord diagramE MajorE
|---------------|------------------|---------------|-------------------||
|---------------|------------------|---------------|------------------o||
|---------5-----|------------------|---------5-----|-------------------||
|-5h7-7-7-5--7--|-(7)--7-7-------5-|-5h7-7-7-5--7--|-(7)--7-7-------5--||
|-0-0-0-0----0--|-(0)--0-0-5-6-7---|-0-0-0-0----0--|-(0)--0-0-5-6-7---o||
|---------------|------------------|---------------|-------------------||


                  Guitar Solo
  2.
  Gtr II
  Q  A chord diagramE MajorE A chord diagramE MajorE Q  A chord diagramE MajorE A chord diagramE MajorE    Q   Q      H
|---------------||----------------------|
|---------------||----------------------|
|---------------||-----9b11---9b11------|
|-4--4-4-4--4-4-||----------------------|
|-2--2-2-2--2-2-||----------------------|
|---------------||----------------------|
|
| Gtr I
| Q  A chord diagramE MajorE A chord diagramE MajorE Q  A chord diagramE MajorE A chord diagramE MajorE    A chord diagramE MajorE A chord diagramE MajorE A chord diagramE MajorE    A chord diagramE MajorE A chord diagramE MajorE    A chord diagramE MajorE Q
|---------------||----------------------|
|---------------||----------------------|
|---------------||-5--------------------|
|-4--4-4-4--4-4-||-5-7-0----------------|
|-2--2-2-2--2-2-||-----0----4-7----7-9--|
|---------------||----------2-5------7--|


   Q.      A chord diagramE MajorE     +Q    +A chord diagramE MajorE  +A chord diagramE MajorE    Q     +A chord diagramE MajorE  A chord diagramE MajorE     +A chord diagramE MajorE  A chord diagramE MajorE  Q
|------------------------------|---------------------------------|
|------------------------------|---------------------------------|
|--9b11----9b11==(9)---(9)r(9)-|-9b11r=(9)-9b11==(9)-9r-9b11=====|
|------------------------------|---------------------------------|
|------------------------------|---------------------------------|
|------------------------------|---------------------------------|
|
|                                          PM-----------------|
| +Q     A chord diagramE MajorE A chord diagramE MajorE      A chord diagramE MajorE  A chord diagramE MajorE  A chord diagramE MajorE   A chord diagramE MajorE    Q      A chord diagramE MajorE  A chord diagramE MajorE      A chord diagramE MajorE  A chord diagramE MajorE  A chord diagramE MajorE     A chord diagramE MajorE
|------------------------------|---------------------------------|
|------------------------------|---------------------------------|
|------------------------------|---------------------------------|
|------------------------------|---------------------------------|
|-(9)----9---------------------|-9------9------------------------|
|-(7)----7-0------0--2--5---5--|-7------7--7------7--7--7-----7--|


              ~~~~~~
  +A chord diagramE MajorE  +S  S A chord diagramE MajorE A chord diagramE MajorE +Q    A chord diagramE MajorE A chord diagramE MajorE   A chord diagramE MajorE A chord diagramE MajorE A chord diagramE MajorE A chord diagramE MajorE A chord diagramE MajorE A chord diagramE MajorE A chord diagramE MajorE A chord diagramE MajorE       +A chord diagramE MajorE   A chord diagramE MajorE  S S A chord diagramE MajorE A chord diagramE MajorE  A chord diagramE MajorE A chord diagramE MajorE  A chord diagramE MajorE
|-------------------------|---------------------|------7-------------7-10-|
|-------------------------|---------------------|--------10p7---7-10------|
|-(9)r(9)p7---------------|---------7---7-9b11==|=(9)r--------9-----------|
|-----------9-9-(9)---9-9-|-7h9-9-9---9---------|-------------------------|
|-------------------------|---------------------|-------------------------|
|-------------------------|---------------------|-------------------------|
|
|  PM---------------|                                           PM---|
|  A chord diagramE MajorE   A chord diagramE MajorE    A chord diagramE MajorE A chord diagramE MajorE  A chord diagramE MajorE  A chord diagramE MajorE A chord diagramE MajorE A chord diagramE MajorE   A chord diagramE MajorE A chord diagramE MajorE A chord diagramE MajorE A chord diagramE MajorE Q   Q         +H            A chord diagramE MajorE  A chord diagramE MajorE A chord diagramE MajorE  A chord diagramE MajorE
|-------------------------|---------------------|-------------------------|
|-------------------------|---------------------|-------------------------|
|-------------------------|---------------------|-------------------------|
|-------------------------|---------------------|-------------------------|
|--9---9------------------|-----9-9-9---9-------|-(9)-----------0-------0-|
|--7---7----7-7--0--2-5-6-|-5h7-7-7-7---7-------|-(7)--------------1-2----|


                                                   ~~~~~~
  S  S S  S A chord diagramE MajorE A chord diagramE MajorE  Q     A chord diagramE MajorE  A chord diagramE MajorE        +A chord diagramE MajorE   A chord diagramE MajorE  A chord diagramE MajorE    A chord diagramE MajorE  Q        +A chord diagramE MajorE    A chord diagramE MajorE
|-7h10p7----7-7--------7--------|-------7-------7--------------------|
|--------10-7-7-10b12----10b12==|=(10)r---10b12---10b12====(10)r-4s=|
|-------------------------------|------------------------------------|
|-------------------------------|------------------------------------|
|-------------------------------|------------------------------------|
|-------------------------------|------------------------------------|
|
|                                                  PM------|
| A chord diagramE MajorE    A chord diagramE MajorE    A chord diagramE MajorE A chord diagramE MajorE  Q     Q           +H              A chord diagramE MajorE     A chord diagramE MajorE   A chord diagramE MajorE    A chord diagramE MajorE
|-------------------------------|------------------------------------|
|-------------------------------|------------------------------------|
|-------------------------------|------------------------------------|
|-------------------------------|------------------------------------|
|----------------------9--------|--(9)-------------------------------|
|-5s===7----7-7-10-----7--------|--(7)-------------0-----1---2----5--|
|-Rhy Fig 4                                            end Rhy Fig 4-|

w/Rhy Fig 4 x3
                   ~~~~~
   Q    A chord diagramE MajorE  A chord diagramE MajorE      +Q     A chord diagramE MajorE  A chord diagramE MajorE
|------12---------------------|
|-15------15b17==(15)r--12-15-|
|-----------------------------|
|-----------------------------|
|-----------------------------|
|-----------------------------|


                     ~~~~                                         ~~
   A chord diagramE MajorE   A chord diagramE MajorE  A chord diagramE MajorE  A chord diagramE MajorE      +Q     +S   +S   A chord diagramE MajorE    S  S  A chord diagramE MajorE  A chord diagramE MajorE  A chord diagramE MajorE  A chord diagramE MajorE  A chord diagramE MajorE  A chord diagramE MajorE  A chord diagramE MajorE
|--------------------------------------|-------------------14-17-14-|
|--------------------------------------|-------------14-17----------|
|-12-----12-14b16==(14)---(14)r(14)p12-|----12-14s16----------------|
|-----14-------------------------------|-14-------------------------|
|--------------------------------------|----------------------------|
|--------------------------------------|----------------------------|


    ~~~~                                                         ~~
   +Q.    +A chord diagramE MajorE   Q    Q      A chord diagramE MajorE  A chord diagramE MajorE  a  Q    A chord diagramE MajorE  A chord diagramE MajorE  A chord diagramE MajorE  A chord diagramE MajorE    A chord diagramE MajorE   A chord diagramE MajorE  A chord diagramE MajorE  A chord diagramE MajorE  +Q     A chord diagramE MajorE A chord diagramE MajorE
|-(14)---(14)----------|-14------------------------|--------------------------|
|--------------5s==17---|----14-14h17---14----14----|--------------------------|
|-----------------------|------------------16----14-|-----16----14-(14)-------|
|-----------------------|---------------------------|-16-----16------------4s8-|
|-----------------------|---------------------------|--------------------------|
|-----------------------|---------------------------|--------------------------|


                                PM----|
  A chord diagramE MajorE A chord diagramE MajorE A chord diagramE MajorE A chord diagramE MajorE  Q       Q     +Q     A chord diagramE MajorE A chord diagramE MajorE A chord diagramE MajorE A chord diagramE MajorE  Q       Q  A chord diagramE MajorE A chord diagramE MajorE Q    Q
|----------------------|----------------------||----------------|
|----------------------|----------------------||----------------|
|----------------------|----------------------||-9------5b6-----|
|----------------------|----------------------||-9--7-7------7--|
|---------10-------9---|-(9)----9-9-9-9--9----||-7--0-0------0--|
|-5s7-7-7-10-------7---|-(7)----7-7-7-7--7----||----------------|
|
|                               ~~~~~~
| A chord diagramE MajorE A chord diagramE MajorE A chord diagramE MajorE A chord diagramE MajorE  S S S S A chord diagramE MajorE A chord diagramE MajorE    A chord diagramE MajorE   A chord diagramE MajorE Q   Q   +Q       Q  Q   Q    Q
|----------------------|----------------------||----------------|
|----------------------|----------------------||----------------|
|-7---7-9--7h9p7-------|----------------------||-------------9--|
|---9------------9-7---|----------------------||----7---7/---9--|
|--------------------9-|--7-------------------||----0---0----7--|
|----------------------|-----10-7---7---(7)--||-0--------------|


                                            ~~~
   A chord diagramE MajorE  A chord diagramE MajorE A chord diagramE MajorE A chord diagramE MajorE A chord diagramE MajorE  A chord diagramE MajorE  A chord diagramE MajorE A chord diagramE MajorE   A chord diagramE MajorE A chord diagramE MajorE A chord diagramE MajorE A chord diagramE MajorE Q    Q      Q.     A chord diagramE MajorE +A chord diagramE MajorE  A chord diagramE MajorE A chord diagramE MajorE    +A chord diagramE MajorE
|---------------------|------------------|---------------------------|
|---------------------|------------------|---------------------------|
|---------------------|---------5--------|---------------------------|
|-(7)---------------5-|-5h7-7-7------7---|-/7-----/7-(7)-7-7b8==(7)r-|
|--0--0-0-0-5--6--7---|-0---0-0------0---|--0------------------------|
|---------------------|------------------|---------------------------|
|
| +Q    Q   A chord diagramE MajorE  A chord diagramE MajorE  A chord diagramE MajorE A chord diagramE MajorE   A chord diagramE MajorE A chord diagramE MajorE Q   Q    A chord diagramE MajorE A chord diagramE MajorE    Q   A chord diagramE MajorE  A chord diagramE MajorE  A chord diagramE MajorE  A chord diagramE MajorE A chord diagramE MajorE     A chord diagramE MajorE
|---------------------|------------------|---------------------------|
|---------------------|------------------|---------------------------|
|-(9)-------x------|---------5b6------|---------------------------|
|-(9)---9---------7-7-|-5h7-7--------7-7-|--7---7--7-------------5---|
|-(7)---7---------0-0-|-0---0--------0-0-|--0---0--0--5--6-7---------|
|---------------------|------------------|---------------------------|


w/Rhy Fig 1 x2
                                                                D.S. al Coda
                              PM--|                                   PM--|
  A chord diagramE MajorE A chord diagramE MajorE Q   Q    Q    +A chord diagramE MajorE  A chord diagramE MajorE A chord diagramE MajorE A chord diagramE MajorE A chord diagramE MajorE A chord diagramE MajorE A chord diagramE MajorE A chord diagramE MajorE   A chord diagramE MajorE A chord diagramE MajorE Q   Q      Q    +A chord diagramE MajorE  A chord diagramE MajorE A chord diagramE MajorE A chord diagramE MajorE A chord diagramE MajorE A chord diagramE MajorE A chord diagramE MajorE A chord diagramE MajorE
|-----------------|-------------------|-------------------|-------------------||
|-----------------|-------------------|-------------------|-------------------||
|---------5b6-----|-------------------|---------5b5.5-----|-------------------||
|-5h7-7--------7--|-(7)-7-7-7-------5-|-5h7-7----------7--|-(7)-7-7-7-------5-||
|-0---0--------0--|-(0)-0-0-0-5-6-7---|-0---0----------0--|-(0)-0-0-0-5-6-7---||
|-----------------|-------------------|-------------------|-------------------||


                    Guitar Solo
  &
  Gtr I
  A chord diagramE MajorE A chord diagramE MajorE A chord diagramE MajorE A chord diagramE MajorE A chord diagramE MajorE A chord diagramE MajorE A chord diagramE MajorE A chord diagramE MajorE    A chord diagramE MajorE A chord diagramE MajorE A chord diagramE MajorE A chord diagramE MajorE E.S Q       +A chord diagramE MajorE  +A chord diagramE MajorE  H         A chord diagramE MajorE A chord diagramE MajorE
|-----------------||-------------------|-----------------------|
|-----------------||-5-------5h7-7b8===|=(7)r(7)-7b8-------7-7-|
|-----------------||-5h7-7-7-5h7-7b9===|=(7)r(7)-7b8-------7-7-|
|-4-4-4-4-4-4-4-4-||-------------------|-----------------------|
|-2-2-2-2-2-2-2-2-||-------------------|-----------------------|
|-----------------||-------------------|-----------------------|
|
| Gtr II
|
| A chord diagramE MajorE A chord diagramE MajorE A chord diagramE MajorE A chord diagramE MajorE A chord diagramE MajorE A chord diagramE MajorE A chord diagramE MajorE A chord diagramE MajorE
|-----------------||
|-----------------||
|-----------------||-w/Rhy Fig 1 x8
|-4-4-4-4-4-4-4-4-||
|-2-2-2-2-2-2-2-2-||
|-----------------||


  A chord diagramE MajorE A chord diagramE MajorE A chord diagramE MajorE A chord diagramE MajorE a Q  A chord diagramE MajorE A chord diagramE MajorE    A chord diagramE MajorE  Q   A chord diagramE MajorE   +A chord diagramE MajorE  A chord diagramE MajorE A chord diagramE MajorE A chord diagramE MajorE
|------------------|-----------------------|
|-------5----------|-----------------------|
|-5-7-7-5---5------|--5--7---7b9r(7)p5---5-|
|-----------5--5h7-|-------------------7---|
|---------7----0---|-----------------------|
|------------------|-----------------------|


  A chord diagramE MajorE A chord diagramE MajorE A chord diagramE MajorE A chord diagramE MajorE A chord diagramE MajorE Q   A chord diagramE MajorE       A chord diagramE MajorE  +A chord diagramE MajorE  A chord diagramE MajorE A chord diagramE MajorE A chord diagramE MajorE A chord diagramE MajorE A chord diagramE MajorE A chord diagramE MajorE
|--------------------|--5------8---5-5-5-5--|
|-----5---5-8--------|--5------8-8-5-5-5-5--|
|-----5---5-7---7b9==|=(7)r(7)--------------|
|-7-7---7------------|----------------------|
|--------------------|----------------------|
|--------------------|----------------------|


  +A chord diagramE MajorE A chord diagramE MajorE Q   A chord diagramE MajorE Q       A chord diagramE MajorE    A chord diagramE MajorE  A chord diagramE MajorE A chord diagramE MajorE A chord diagramE MajorE  A chord diagramE MajorE  Q   A chord diagramE MajorE   A chord diagramE MajorE  A chord diagramE MajorE  A chord diagramE MajorE  A chord diagramE MajorE  A chord diagramE MajorE  Q    A chord diagramE MajorE
|-(5)5-5---5---------5-|--8----5-5--5--5---5-|-5-----8--8--8--8----8-|
|-(5)5-8---5-8b8.5---5-|--8--8-5-8-(8)-5---8-|-8s10-10-10-10-10---10-|
|----------------------|---------------------|-----------------------|
|----------------------|---------------------|-----------------------|
|----------------------|---------------------|-----------------------|
|----------------------|---------------------|-----------------------|


   A chord diagramE MajorE  A chord diagramE MajorE A chord diagramE MajorE A chord diagramE MajorE +A chord diagramE MajorE  A chord diagramE MajorE A chord diagramE MajorE A chord diagramE MajorE   A chord diagramE MajorE A chord diagramE MajorE A chord diagramE MajorE +A chord diagramE MajorE   A chord diagramE MajorE  A chord diagramE MajorE  A chord diagramE MajorE  A chord diagramE MajorE    A chord diagramE MajorE  A chord diagramE MajorE A chord diagramE MajorE A chord diagramE MajorE +A chord diagramE MajorE  A chord diagramE MajorE A chord diagramE MajorE A chord diagramE MajorE
|--8------5-(5)---5-5-|-5-------------8--8--8-|--8s=5-5-5-(5)-5---5-|
|-10s=8-8-8-(8)-8-8-8-|-5h8-8-(8)s10-10-10-10-|-10s=8-8-8-(8)-8-8-5-|
|---------------------|-----------------------|---------------------|
|---------------------|-----------------------|---------------------|
|---------------------|-----------------------|---------------------|
|---------------------|-----------------------|---------------------|


                 ~~~~
  Q      A chord diagramE MajorE A chord diagramE MajorE    +A chord diagramE MajorE   A chord diagramE MajorE A chord diagramE MajorE   A chord diagramE MajorE    A chord diagramE MajorE  A chord diagramE MajorE A chord diagramE MajorE A chord diagramE MajorE A chord diagramE MajorE A chord diagramE MajorE S S S S
|--------------------5-----5-|--5--8p5-5-5-----------|
|-8b10---0-5----(5)--5-5---5-|--5------8---5-5h8p5---|
|--------0-7b9==(7)r---7b9---|---------------------7-|
|----------------------------|-----------------------|
|----------------------------|-----------------------|
|----------------------------|-----------------------|


  A chord diagramE MajorE A chord diagramE MajorE S S S S A chord diagramE MajorE A chord diagramE MajorE A chord diagramE MajorE A chord diagramE MajorE      +Q   Q   A chord diagramE MajorE +A chord diagramE MajorE  Q
|-------------------8----|-(8)----------------||
|-5-----------------8----|-(8)--8---8---------||
|---7-5h7p5---5---5-7b9==|=(7)--7---7r(7)-----||
|-----------7---7--------|----------------9---||
|------------------------|--------------------||
|------------------------|--------------------||


 Outro
  Rhy Fig 3


  Gtrs I, II
  A chord diagramE MajorE     A chord diagramE MajorE A chord diagramE MajorE A chord diagramE MajorE Q  Q    +Q   Q  H
|-------------------|--------------*|
|-------------------|--------------*|
|-5b5.5-------5-----|--------------*|
|-------7-7-7----7--|-(7)----------*|
|-------0-0-0----0--|-(0)----------*|
|-------------------|--------------*|

Almost there ...

Sign in to get your own page with links to favourite songs and more. You are just one click away...

Login with Facebook Login with Google