Log in

One click and you are in

Login with Facebook Login with Google

Why sign up and log in

Guitar Tabs Explorer
Motörhead bass tabs for Louie louie

Bass tabs

Louie Louie.
by Motorhead.
No Remorse
Lemmy
[john/sammy] john.sammy@btinternet.com


Intro.
G-------------------------------
D-------------------------------
A---5-000-55-777-55-------------
E-------------------------------


Chorus.
G--------------------------------
D--------------------------------
A---000-55-777-55----------------
E--------------------------------


Verse.
G--------------------------------
D--------------------------------
A---0-05-5777-5------------------
E--------------------------------

Guitar solo
G--------------------------------
D--------------------------------
A---000/55/777/55/---------------
E--------------------------------


Outro.
G--------------------------------
D--------------------------------
A---0-0-0-0-0.....0--------------
E--------------------------------

Almost there ...

Sign in to get your own page with links to favourite songs and more. You are just one click away...

Login with Facebook Login with Google