Log in

One click and you are in

Login with Facebook Login with Google

Why sign up and log in

Guitar Tabs Explorer
Motörhead bass tabs for I know how to die

Bass tabs

by Richmex


Intro (riff a)
          x3
G|-----------5-------|
D|-----7-5-7---7-5-7-|
A|---0---------------|
E|-------------------|
Lyrics                 x3
G|------------------------------5-------|
D|---5h7-5-7-7-5-7-5-7----7-5-7---7-5-7-|
A|---0-0---0-0---0---0--0---------------|
E|--------------------------------------|


Chorus              x3
G|--------------------------------|----------5------------------|
D|--------------------------------|----7-5-7---7-5-7------------|
A|---7-7-7-77-7-7788888885-5555-55|--0---------------777x7x77x7-|
E|--------------------------------|-----------------------------|


Lyrics 2

Chorus


Solo              x3
G|----------------------------|-------------------------------------|
D|----------------------------|-------------------------------------|
A|5-5-55-50-0-00-07-7-77777777|5-5-55-50-0-00-3333333333333333333333|
E|----------------------------|-------------------------------------|

G|-----------5------------------5-----------7-5-7-5--------|
D|-------------7-5-7------7-5-7---7-5-7-------------7-5----|
A|----------------------0------------------0------------765|
E|---------------------------------------------------------|


Lyrics 3


Chorus             x3
G|--------------------------------|----------5----------------5------|
D|--------------------------------|----7-5-7---7-5-7----7-5-7---7-5-7|
A|---7-7-7-77-7-7788888885-5555-55|--0----------------0--------------|
E|--------------------------------|----------------------------------|

                 x3
G|--------------------------------|----------5-------|
D|--------------------------------|----7-5-7---7-5-7-|
A|---7-7-7-77-7-7788888885-5555-55|--0---------------|
E|--------------------------------|------------------|


Out                   x4
G|-----------5---------------------------|--------------------------------|
D|-----7-5-7---7-5-7---5h7-5-7-7-5-7-5-7-|--------------------------------|
A|---0-----------------0-0---0-0---0---0-|---7-7-7-77-7-7788888885-5555-55|
E|---------------------------------------|--------------------------------|

G|-----------5-------|
D|-----7-5-7---7-5-7-|
A|---0---------------|

Almost there ...

Sign in to get your own page with links to favourite songs and more. You are just one click away...

Login with Facebook Login with Google