Log in

One click and you are in

Login with Facebook Login with Google

Why sign up and log in

Guitar Tabs Explorer
Motörhead tabs for I dont believe a word

Guitar tabs

Album: Overnight Sensation


Tuning: Half-Step Down, A chord diagramE MajorE Flat- A chord diagramEb MajorEb A chord diagramAbAb A chord diagramDbDb A chord diagramGbGb A chord diagramBb majorBb A chord diagramEb MajorEb (low to high)
Intro/Verse Riff-  *Guitar comes in after bass
eb-------------------------------------------------------|
Bb-------------------------------------------------------|
Gb-------------------------------------------------------|
Db-------------------------------------------------------|
Ab--14-14-14-14-14-14-14-12/-10-10-10-10-10-10-10-10\----|
Eb--12-12-12-12-12-12-12-12/-8--8--8--8--8--8--8--8\-----|
        *  *     *  *     *     *  *     *  *     *
eb--------------------------  ----------------    -------------------|
Bb--------------------------  ----------------    -------------------|
Gb--------------------------  ----------------    7/6-x-7/6----------|
Db--------------------------  ----------------    5/4-x-5/4----------|
Ab--12-12-12-12-12-12-12-12/  7-7-7-7-7-7-7-7-    ----x--------------|
Eb--10-10-10-10-10-10-10-10/  5-5-5-5-5-5-5-5-then---------     (x)8-|
        *  *     *  *     *     * *   * *   *
                         ^^The end of this riff alternates in this pattern


Chorus-
eb---------------------------------------|
Bb---------------------------------------|
Gb---------------------------------------|
Db-------------------8-------------------|
Ab--6--------3-------6--------7----------|
Eb--4--------1----------------5----------| (x)2


*Repeat

Intro/Verse

Chorus

Intro/Verse

Chorus


End Riff (Idk what to call it- Bridge/ Interlude maybe ) *Around 4:48
eb---------------------------------------------------------------------------|
Bb---------------------------------------------------------------------------|
Gb---------------------------------------------------------------------------|
Db-------------------------8-------------------------------------------------|
Ab--12-----6-------12------6-----12-------6------5-5-5-5-5-5-5-5-5-5-5-5-----|
Eb--10-----4-------10------------10-------4------3-3-3-3-3-3-3-3-3-3-3-3(x)5-|
                                                   * *   * *   * *   * *

And Thats It!
Tabbed by: Will Campbell (All by ear so sorry for any mistakes!) Enjoy!

 =Key=
* = palm mute
/\= Slide to

Almost there ...

Sign in to get your own page with links to favourite songs and more. You are just one click away...

Login with Facebook Login with Google