Log in

One click and you are in

Login with Facebook Login with Google

Why sign up and log in

Guitar Tabs Explorer
Motörhead tabs for Christine

Guitar tabs

INTRO/CHORUS/OUTRO
---------------------------------------
---------------------------------------
---------------------------------------
-7--7-5-5-----------7--7-5-5-----------
-5--5-3-3-5-7-5-----5--5-3-3-5-7-5-----
----------3-3-3-(3)----------3-3-3-(3)-


VERSE
-----------------------------------
-----------------------------------
-----------------------------------
-7-9-7-9-7-9-7-9-2-4-5-4-5-4-5-0h2-
-5-5-5-5-5-5-5-5-0-0-0-0-0-0-0-0---
-----------------------------------


PRE-CHORUS
---------------------------------
---------------------------------
---------------------------------
-5-7-5-7-5-7-5-7-6-8-6-8-6-8-6-8-
-3-3-3-3-3-3-3-3-4-4-4-4-4-4-4-4-
---------------------------------

Christine tab

Motörhead tabs for Christine "Christine" is a song Lemmy has written in cooperation with lead guitarist Phil Campbell and drummer Mikkey Dee. It was included on Motörhead's 18th studio album "Kiss of Death".

The album and hence "Christine" was released in 2006.

Almost there ...

Sign in to get your own page with links to favourite songs and more. You are just one click away...

Login with Facebook Login with Google